Oops, an error
Loading. Please wait.

Cruz Del Sur tab

74 views 1 this week
no commentswrite comment
1 2 3 4 5
3 more votes to show rating
add to favorites
×
Save as Personal and add changes to this tab that will be seen only by you. Learn more ›
×
You can save this tab as Personal to edit and correct it or add notes. All changes will be seen only by you. Learn more »
launch autoscroll
font size
0
reset
how to read this tab
guitar tuner
edit
Autoscroll
slow
fast
+/-
esc
set tempo
stop
Esta super buena esta cancion

Intro

 e||-----------------------------------||
 B||-----------------------------------||
 G||-----------------------------------||
 D||----5-------------5-5-5-5-5-5-5-5--||
 A||--7---7-5-3-0-----5-5-5-5-5-5-5-5--||
 E||--------------5-0-3-3-3-3-3-3-3-3--||

 e||-----------------------------------||
 B||-----------------------------------||
 G||-----------------------------------||
 D||------5-----------7-7-7-7-7-7-7-7--||
 A||--5/7---7-5---5-7-7-7-7-7-7-7-7-7--||
 E||------------7-----5-5-5-5-5-5-5-5--||

 e||----------------------------------||
 B||----------------------------------||
 G||----------------------------------||
 D||----5------------5-5-5-5-5-5-5-5--||
 A||--7---7-5-3------5-5-5-5-5-5-5-5--||
 E||-------------5-0-3-3-3-3-3-3-3-3--||

 e||-----------------------------------||
 B||-----------------------------------||
 G||-----------------------------------||
 D||------5-----------7-7-7-7-7-7-7-7--||
 A||--5/7---7-5---5-7-7-7-7-7-7-7-7-7--||
 E||------------7-----5-5-5-5-5-5-5-5--||

Verso

e||------------------10-10-10-10--|--08---||
B||------------------10-10-10-10--|--10---||
G||------7----5--5----7--7--7--7--|--09---||
D||--7-7-7-7-------7--------------|-------||
A||-------------------------------|-------||
E||-------------------------------|-------||

e||-----------------------------||
B||-----------------------------||
G||-----------------------------||
D||------7-5-7/8-7-5-7/8-7-5----||
A||--7-7---------------------5--||
E||-----------------------------||

e||---------------------------||
B||---------------------------||
G||---------------------------||
D||--5-5-5--7----5------------||
A||--5-5-5--7--7---7-5-3------||
E||--3-3-3--5------------5-0--||

coro

 Dm   Am       Dm/Em   D# Dm
 Voy hacia ella, mi estrella
 Dm         Am          G  Am
 Me muestra con su luz, mi hogar

 Siempre guiado por la cruz del sur,
 Me dejare llevar en libertad.

*/ se deliza del Rem al Mim

eso despues subo el lo q va antes del solo y el solo

            
            
Suggest correction
Creating personal tab
Creating personal tab
You can edit any tab online and save it as your Personal.

You can edit, replace or remove any tab part or add personal notes – all changes will be seen only by you.

Personal tabs can be accessed anytime from any device, even offline.
Learn more »
Give kudos to tab author, rate the tab!
1 2 3 4 5
comments
print report bad tab
guest
Wanna post a correction for this tab? Suggest correction