Oops, an error
Loading. Please wait.

Funky Tu Madre bass

version 2
version 2

Whole song

131 views 1 this week
no commentswrite comment
1 2 3 4 5
3 more votes to show rating
add to favorites
×
Save as Personal and add changes to this tab that will be seen only by you. Learn more ›
×
You can save this tab as Personal to edit and correct it or add notes. All changes will be seen only by you. Learn more »
launch autoscroll
font size
0
reset
guitar tuner
edit
Autoscroll
slow
fast
+/-
esc
set tempo
stop
intro 

G ---------------------------------------------
D -------\-7--7--5-----5------------------------
A -----------------7-----7--5--7--5-----5------
E --5--5-----------------------------8-----8--5

riff de la canion
el slide se hace al principio y nunca mas
G ---------------------------------------------
D --------7--------------------7---------------
A -----------------3--3H-5--------------3--3H-5
E \17--5-----0--3-----------5-----0--3---------
s s p s s s s s p s s s s
1er coro

G ---------------------------------------------------------
D ---------------------------------------------------------
A --5--5--5--5--5--5--3--5--3-----------------------3--3--3
E -----------------------------3--5---3H-5--5--5-5--------
s s s s s s p p p
G ----------------------------------
D ----------------------------------
A --5--5--5--5--5--5--3--5--3-------
E -----------------------------3--5-
s s
salida del primer coro

G ------------------------------------------
D -----5-7------7--5------------------------
A --7-----------------7--5--7--5--3--5------
E --------------------------------------3--5

2do coro

G ---------------------------------------------------------
D ---------------------------------------------------------
A --5--5--5--5--5--5--3--5--3-----------------------3--3--3
E -----------------------------3--5---3H-5--5--5-5--------
s s s s s s p p p

G ---------------------------------------------------------
D ---------------------------------------------------------
A --5--5--5--5--5--5--3--5--3------------------------------
E -----------------------------3--5---3H-5--5--5-5-3--2-1----
s s s s s s 

G ------------------------------
D ------------------------------
A ------------------------------
E -10-10-10-10-10-10--8--9--8--7

G ------------------------------
D ------------------------------
A ------------------------------
E -10-10-10-10-10-10--8--9--8--7

G ------------------------------
D ------------------------------
A ------------------------------
E -10-10-10-10-10-10--8--9--8--7

G ------------------------------
D ------------------------------
A --------------------------8-10
E -10-10-10-10-10-10--8-10------

solo (esto me costo 3 semanas de escuchar el mismo trozo de la cancion, pero lo hice)

G ----14----------------------14-------------------14----------------------14-12-
D -------------10-10H12----------------10--9----------------10-10H12-------------
A -12-----0-10----------12-x------0-10-------10-12-----0-10----------12-12-------
E -------------------------------------------------------------------------------
s p s s p p s s p s s p p s s p s s p p s s p p

G -11-11H12----14----------------------14-------12H14-12-------14----------------
D ----------------------10-10H12-------------------------14-------------10-10H12-
A ----------12-----0-10----------12-12-----0-10-------------12-----0-10----------
E -------------------------------------------------------------------------------
p p s p s s s s p p s s s p p p s p s s p p 

G -------14---------------
D ----------------10--9---
A -12-12-----0-10-------10
E ------------------------
s s p s s p p s


3er coro

G ---------------------------------------------------------
D ---------------------------------------------------------
A --5--5--5--5--5--5--3--5--3-----------------------3--3--3
E -----------------------------3--5---3H-5--5--5-5--------
s s s s s s p p p

G ---------------------------------------------------------
D ---------------------------------------------------------
A --5--5--5--5--5--5--3--5--3------------------------------
E -----------------------------3--5---3H-5--5--5-5-3--2-1----
s s s s s s 

G ------------------------------
D ------------------------------
A ------------------------------
E -10-10-10-10-10-10--8--9--8--7

G ------------------------------
D ------------------------------
A ------------------------------
E -10-10-10-10-10-10--8--9--8--7

G ------------------------------
D ------------------------------
A ------------------------------
E -10-10-10-10-10-10--8--9--8--7

G ----------------------------------------14
D ----------------------------------12H14---
A --------------------------8-10-12---------
E -10-10-10-10-10-10--8-10------------------

            
            
Suggest correction
Creating personal tab
Creating personal tab
You can edit any tab online and save it as your Personal.

You can edit, replace or remove any tab part or add personal notes – all changes will be seen only by you.

Personal tabs can be accessed anytime from any device, even offline.
Learn more »
Give kudos to tab author, rate the tab!
1 2 3 4 5
comments
print report bad tab
guest
Wanna post a correction for this tab? Suggest correction