Oops, an error
Loading. Please wait.

Kiltro Virtual bass

version 1
version 1

Whole song

21 views 1 this week
no commentswrite comment
1 2 3 4 5
3 more votes to show rating
add to favorites
×
Save as Personal and add changes to this tab that will be seen only by you. Learn more ›
×
You can save this tab as Personal to edit and correct it or add notes. All changes will be seen only by you. Learn more »
launch autoscroll
font size
0
reset
guitar tuner
edit
Autoscroll
slow
fast
+/-
esc
set tempo
stop
Intro
G|---------------------------------------3h5--5--8--5--3-|
D|-----------5--3---3--3-3--3---3--3-3h5-----------------|
A|-3--3--3h6---------------------------------------------|
E|-------------------------------------------------------|

G|----5----------------------------------3h5-|
D|-----------5--3---3--3-3--3---3--3-3h5-----|
A|-3-----3h6---------------------------------|
E|-------------------------------------------|

Verso x2
G|-5-------3-------1----------------------------------------------|
D|-------------------------5-------3-------3------------3-----3-5-|
A|----3-3-----3-3-----3-3-----3-3-----4-4-----4-3--3-3-----6------|
E|----------------------------------------------------------------|

G|-5-------3-------1----------------------------------------------|
D|-------------------------5-------3-------3------------3---------|
A|----3-3-----3-3-----3-3-----3-3-----4-4-----4-3--3-3-----6------|
E|-----------------------------------------------------------6----|


Coro
G|---------------------------------------3h5--5--8--5--3-|
D|-----------5--3---3--3-3--3---3--3-3h5-----------------|
A|-3--3--3h6---------------------------------------------|
E|-------------------------------------------------------|

G|----5----------------------------------3h5-|
D|-----------5--3---3--3-3--3---3--3-3h5-----|
A|-3-----3h6---------------------------------|
E|-------------------------------------------|

Verso x2
G|-5-------3-------1----------------------------------------------|
D|-------------------------5-------3-------3------------3-----3-5-|
A|----3-3-----3-3-----3-3-----3-3-----4-4-----4-3--3-3-----6------|
E|----------------------------------------------------------------|

G|-5-------3-------1----------------------------------------------|
D|-------------------------5-------3-------3------------3---------|
A|----3-3-----3-3-----3-3-----3-3-----4-4-----4-3--3-3-----6------|
E|-----------------------------------------------------------6----|


Coro
G|---------------------------------------3h5--5--8--5--3-|
D|-----------5--3---3--3-3--3---3--3-3h5-----------------|
A|-3--3--3h6---------------------------------------------|
E|-------------------------------------------------------|

G|----5----------------------------------3h5-|
D|-----------5--3---3--3-3--3---3--3-3h5-----|
A|-3-----3h6---------------------------------|
E|-------------------------------------------|


Coro
G|---------------------------------------3h5--5--8--5--3-|
D|-----------5--3---3--3-3--3---3--3-3h5-----------------|
A|-3--3--3h6---------------------------------------------|
E|-------------------------------------------------------|

G|----5----------------------------------3h5--8h10-8----8------|
D|-----------5--3---3--3-3--3---3--3-3h5-------------10---10p8-|
A|-3-----3h6---------------------------------------------------|
E|-------------------------------------------------------------|

G|-----------------------------------------------3h5-|
D|---------5-3--------5-------5-3------------3h5-----|
A|-3-3-3-3------3-3-3---3-3-3------3-3---3h6---------|
E|---------------------------------------------------|

Solo de Bajo
Con Wah Wah
G|-(5)--x-2-3-3h5---------x-2-3-3h5-| Repetir varias veses
D|----------------------------------|
A|---------------0-1-2-3------------|(5)= solo se toka la
E|----------------------------------|primera ves

esto se toka kuando lalo dice
'Ladra con sonido...'

G|-----------------------------------------------|se toka varias
D|-----3-3h5-1-1h3-----------3-3h5-3-1-----------|veses
A|--3---------------1-----3-------------0--1--2--|
E|-----------------------------------------------|

esto se toka kuando hay un espacio corto k no kanta
y se repite asta el final
G|---------------------------------------------------|
D|---------------------------------------------------|
A|--1-----1--3--1-1-1--1---1-3--1-----1--1-----1--3--|
E|-----3-----------------3---------3--------3--------|


ay esta....   y antes korregir una kaga de kuando mande la
korrecion del imopstor..  en los versos en la ultima parte

G|-----------------------4--------(7)-|las notas k estan en parentesis
D|-------4------7-----4--------(7)----|son las k korregi ya k antes avia puesto
A|----4------7-----2--------(5)-------|7-9-9
E|-2------5---------------------------|

Bueno hay ta chaos

            
            
Suggest correction
Creating personal tab
Creating personal tab
You can edit any tab online and save it as your Personal.

You can edit, replace or remove any tab part or add personal notes – all changes will be seen only by you.

Personal tabs can be accessed anytime from any device, even offline.
Learn more »
Give kudos to tab author, rate the tab!
1 2 3 4 5
comments
print report bad tab
guest
Wanna post a correction for this tab? Suggest correction