Oops, an error
Loading. Please wait.

Mandinga bass

82 views 1 this week
no commentswrite comment
1 2 3 4 5
3 more votes to show rating
add to favorites
×
Save as Personal and add changes to this tab that will be seen only by you. Learn more ›
×
You can save this tab as Personal to edit and correct it or add notes. All changes will be seen only by you. Learn more »
launch autoscroll
font size
0
reset
guitar tuner
edit
Autoscroll
slow
fast
+/-
esc
set tempo
stop
Autor: José Ignacio Marchant          
pepe_pepe@


Intro
|---------------------------------------------------------------------------------------------------------------------|
|-----------------------------------------------------4---------------------------------------------------------------|
|-----18--16-----------18--16----------6--9--5---------------6h8p5--4--3/4--------6h8p5--4--3/4--------6--9--5--------|
|--20---------14---20----------14---8-----------8--2------8-----------------2--8-----------------2--8-----------8--2--|


verso
|---------------------------------------------------------------------------------------|
|---------------------------------------------------------------------------------------|
|-----6--6-----------7---------------------8--6-----------6-----14--15--15\\------------|
|--8--------0--6--8-----8---3--3--6--7--8--------0--6--8-----8--------------------------|

|---------------------------------------------------------------------------------------|
|---------------------------------------------------------------------------------------|
|-----6--6-----------7---------------------8--6-----------6-----3--3--------------------|
|--8--------0--6--8-----8---3--3--6--7--8--------0--6--8-----8--------3--2--------------|

|---------------------------------------------------------------------------------------|
|---------------------------------------------------------------------------------------|
|-----6--6-----------7---------------------8--6-----------6-----14--15--15\\------------|
|--8--------0--6--8-----8---3--3--6--7--8--------0--6--8-----8--------------------------|

|---------------------------------------------------------------------------------------|
|---------------------------------------------------------------------------------------|
|-----6--6-----------7---------------------8--6-----------6-----3--3--------------------|
|--8--------0--6--8-----8---3--3--6--7--8--------0--6--8-----8--------3--2--------------|

|---------------------------------------------------------------------------------------|
|---------------------------------------------------------------------------------------|
|-----6--6-----------7---------------------8--6-----------6-----14--15--15\\------------|
|--8--------0--6--8-----8---3--3--6--7--8--------0--6--8-----8--------------------------|

|---------------------------------------------------------------------------------------|
|---------------------------------------------------------------------------------------|
|-----6--6-----------7---------------------8--6-----------6-----------------------------|
|--8--------0--6--8-----8---3--3--6--7--8--------0--6--8-----8--2--2--------------------|

|---------------------------------------------------------------------------------------|
|---------------------------------------------------------------------------------------|
|-----6--6-----------7---------------------8--6-----------6-----14--15--15\\------------|
|--8--------0--6--8-----8---3--3--6--7--8--------0--6--8-----8--------------------------|

|---------------------------------------------------------------------------------------|
|---------------------------------------------------------------------------------------|
|-----6--6-----------7---------------------3h4-----------------2------------------------|
|--8--------0--6--8-----8---3--3--3--4--6-------3--3--6--6--3-----2---------------------|


coro 1
|-----7-----------------------7--------------------------------------6-----7-----9-----6--|
|-----------8-----------------------8-----------------------------------------------------|
|--5-----------------------5-----------------------4--4--4--4--0--4-----5-----7-----4-----|
|--------6-----5--5--3--3--------6-----5--5--3--3-----------------------------------------|

|-----7-----------------------7-----------------------------------------------------------|
|-----------8-----------------------8-----------------------------------------------------|
|--5-----------------------5-----------------------4--4--4--4--0--4--4--4--5--4---8--7\\--|
|--------6-----5--5--3--3--------6-----5--5--3--3-----------------------------------------|


verso 2
|---------------------------------------------------------------------------------------|
|---------------------------------------------------------------------------------------|
|-----6--6-----------7---------------------8--6-----------6-----14--15--15\\------------|
|--8--------0--6--8-----8---3--3--6--7--8--------0--6--8-----8--------------------------|
                                                                nose que va ahi
|-----------------------------------------------------------------???????---------------|
|-----------------------------------------------------------------???????---------------|
|-----6--6-----------7---------------------8--6-----------6-------???????---------------|
|--8--------0--6--8-----8---3--3--6--7--8--------0--6--8-----8----???????---------------|

|---------------------------------------------------------------------------------------|
|---------------------------------------------------------------------------------------|
|-----6--6-----------7---------------------8--6-----------6-----14--15--15\\------------|
|--8--------0--6--8-----8---3--3--6--7--8--------0--6--8-----8--------------------------|

|---------------------------------------------------------------------------------------|
|---------------------------------------------------------------------------------------|
|-----6--6-----------7---------------------8--6-----------6-----------------------------|
|--8--------0--6--8-----8---3--3--6--7--8--------0--6--8-----8--2--2--------------------|

|---------------------------------------------------------------------------------------|
|---------------------------------------------------------------------------------------|
|-----6--6-----------7---------------------8--6-----------6-----14--15--15\\------------|
|--8--------0--6--8-----8---3--3--6--7--8--------0--6--8-----8--------------------------|

|---------------------------------------------------------------------------------------|
|---------------------------------------------------------------------------------------|
|-----6--6-----------7---------------------3h4-----------------2------------------------|
|--8--------0--6--8-----8---3--3--3--4--6-------3--3--6--6--3-----2---------------------|

coro 2
|-----7-----------------------7--------------------------------------6-----7-----9-----6--|
|-----------8-----------------------8-----------------------------------------------------|
|--5-----------------------5-----------------------4--4--4--4--0--4-----5-----7-----4-----|
|--------6-----5--5--3--3--------6-----5--5--3--3-----------------------------------------|

|-----7-----------------------7--------------------------------------------------------------|
|-----------8-----------------------8--------------------------------------------------------|
|--5-----------------------5-----------------------4--4--4--4--0--4--4--4--5--4--------3--4--|
|--------6-----5--5--3--3--------6-----5--5--3--3--------------------------------3--5--------|

|-----7-----------------------7--------------------------------------6-----7-----9-----6--|
|-----------8-----------------------8-----------------------------------------------------|
|--5-----------------------5-----------------------4--4--4--4--0--4-----5-----7-----4-----|
|--------6-----5--5--3--3--------6-----5--5--3--3-----------------------------------------|

|-----7-----------------------7-----------------------------------------------------------|
|-----------8-----------------------8-----------------------------------------------------|
|--5-----------------------5-----------------------4--4--4--4--0--4--0--4--4--5--4/12-----|
|--------6-----5--5--3--3--------6-----5--5--3--3-----------------------------------------|


|-----6-----7-----9-----6-----7-----10-----9-----7-----6-----7-----9-----6-----7-----------------|
|------------------------------------------------------------------------------------8-----7-----|
|--4-----5-----7-----4-----5-----8------7-----5-----4-----5-----7-----4-----5--------------------|
|---------------------------------------------------------------------------------6-----5-----3--|
                                                                                                                    X7
|-----6-----7-----9-----6-----7-----10-----9-----7-----10------12-----10------13------12-----12------12------12--|-------|
|----------------------------------------------------------------------------------------------------------------|-------|
|--4-----5-----7-----4-----5-----8------7-----5-----8------10------8------11------10------10-----10------10------|---9---|
|----------------------------------------------------------------------------------------------------------------|-------|

voz con distorcion
|---------------------------------------------------------------------------------------------------------------------------|
|------------------------------------------16--16--14------------------------------------------16--16\12--------------------|
|------18h20p18--17--16--13h15--13h15----------------------18h20p18--17--16--13h15--13h15--------------------6--9--5--------|
|--20----------------------------------14--------------20----------------------------------14-------------8-----------8--2--|


verso 3
|----------------------------------------------------------------------------------------|
|----------------------------------------------------------------------------------------|
|-----6--6-----------7---------------------8--6-----------6-----14--15--15\\-------------|
|--8--------0--6--8-----8---3--3--6--7--8--------0--6--8-----8---------------------------|

|----------------------------------------------------------------------------------------|
|----------------------------------------------------------------------------------------|
|-----6--6-----------7---------------------8--6-----------6-----6--5h7--7h9--------------|
|--8--------0--6--8-----8---3--3--6--7--8--------0--6--8-----8---------------------------|
                                                                    s    s

|----------------------------------------------------------------------------------------|
|----------------------------------------------------------------------------------------|
|-----6--6-----------7---------------------8--6-----------6-----14--15--15\\-------------|
|--8--------0--6--8-----8---3--3--6--7--8--------0--6--8-----8---------------------------|

|----------------------------------------------------------------------------------------|
|----------------------------------------------------------------------------------------|
|-----6--6-----------7---------------------3h4------------------2------------------------|
|--8--------0--6--8-----8---3--3--3--4--6--------3--3--6--6--3-----3---------------------|
                                                              
viene lo msimo que en el coro 2

solo
|-----7-----------------------7-----------------------6-----6--------6-----7-----9-----6--|
|-----------8-----------------------8-----------------------------------------------------|
|--5-----------------------5-----------------------4-----4-----0--4-----5-----7-----4-----|
|--------6-----5--5--3--3--------6-----5--5--3--3-----------------------------------------|

|-----7-----------------------7-----------------------6-----6--------------------------------|
|-----------8-----------------------8--------------------------------------------------------|
|--5-----------------------5-----------------------4-----4-----0--4--4--4--5--4--------3--4--|
|--------6-----5--5--3--3--------6-----5--5--3--3--------------------------------3--5--------|

|-----7-----------------------7-----------------------6----6--------6-----7-----9-----6--|
|-----------8-----------------------8----------------------------------------------------|
|--5-----------------------5-----------------------4----4-----0--4-----5-----7-----4-----|
|--------6-----5--5--3--3--------6-----5--5--3--3----------------------------------------|

|-----7-----------------------7-----------------------------------------------------------|
|-----------8-----------------------8-----------------------------------------------------|
|--5-----------------------5-----------------------4--4--4--4--0--4--4--4--5--4-----------|
|--------6-----5--5--3--3--------6-----5--5--3--3-----------------------------------------|

2x
|-----6-----7-----9-----6-----7-----10-----9-----7-----6-----7-----9-----6-----7-----------------|
|------------------------------------------------------------------------------------8-----7-----|
|--4-----5-----7-----4-----5-----8------7-----5-----4-----5-----7-----4-----5--------------------|
|---------------------------------------------------------------------------------6-----5-----3--|
                                                                                                                    4x
|-----6-----7-----9-----6-----7-----10-----9-----7-----10------12-----10------13------12-----12------12------12--|-----11--|
|----------------------------------------------------------------------------------------------------------------|---------|
|--4-----5-----7-----4-----5-----8------7-----5-----8------10------8------11------10------10-----10------10------|--9------|
|----------------------------------------------------------------------------------------------------------------|---------|


|----10-----12-----10------13------12------12------12------12-----11-----11-----11-----11--|
|------------------------------------------------------------------------------------------| 
|-8------10-----8------11------10------10------10------10------9------9------9------9------|
|------------------------------------------------------------------------------------------|

final
|-----------------------|
|-----------------------|
|--8-----8--------------|
|-----7-----7--7--7--7--|

            
            
Suggest correction
Creating personal tab
Creating personal tab
You can edit any tab online and save it as your Personal.

You can edit, replace or remove any tab part or add personal notes – all changes will be seen only by you.

Personal tabs can be accessed anytime from any device, even offline.
Learn more »
Give kudos to tab author, rate the tab!
1 2 3 4 5
comments
print report bad tab
guest
Wanna post a correction for this tab? Suggest correction