Oops, an error
Loading. Please wait.

No Ha Sido Facil bass

22 views 1 this week
no commentswrite comment
1 2 3 4 5
3 more votes to show rating
add to favorites
×
Save as Personal and add changes to this tab that will be seen only by you. Learn more ›
×
You can save this tab as Personal to edit and correct it or add notes. All changes will be seen only by you. Learn more »
launch autoscroll
font size
0
reset
guitar tuner
edit
Autoscroll
slow
fast
+/-
esc
set tempo
stop
Ojala q este buena la cansion y si no me mandan un mail pa corregirla
po ya eso no mas
aqui ta


Guitarra sola
Entra el bajo
uuuuuuuuuuuuuuuuuuuuuuuuuu
G-----------------------------------|  X6
D---------------3--5--3-------------|
A--~3-------5-----------5-----------|
E-----------------------------------|
No ha sido facil aceptar?.
G---------------------------------------|
D---------------3--5--3-----3--5--3-----|  X8
A--~3-------5-----------5---------------|
E---------------------------------------|
uuuuuuuuuuuuuuuuuuuuuuu
G-----------------------------------|
D---------------3--5--3-------------|
A--~3-------5-----------5-----------| X4
E-----------------------------------|
Y la distancia no me pudo ayudar?.
G---------------------------------------|
D---------------3--5--3-----3--5--3-----|  X8
A--~3-------5-----------5---------------|
E---------------------------------------|
uuuuuuuuuuuuuuuuuuuuuuu
G--------------------------------|     --------------------------|
D---------------3--5--3----------|  X3 --------3-----------------|
A--~3-------5-----------5--------|     -~3--5-----5555555--------|
E--------------------------------|     --------------------------|

Para ti no ha sido facil....
G-------------------------------------------------|
D-------------------------------------------------|  X2
A----------3--33------------------5--5555---------|
E--~3--33--------3--33---5--55--------------------|

Algunos tratan de entender?.      Y no descubren nada
G--------------------------------------|---------------------|
D--------------------------------------|---------------------|
A----------------------5--5-5-5-5-5----|---------------------|
E--1-1-1---3-3-3-3---------------------|-1-1-1---3-3-3-3-----|

uuuuuuuuuuuuuuuuuuuuuuu
G-----------------------------------|
D---------------3--5--3-------------|  X4
A--~3-------5-----------5-----------|
E-----------------------------------|

Que acepte el destino?.
G---------------------------------------|
D---------------3--5--3-----3--5--3-----|  X8
A--~3-------5-----------5---------------|
E---------------------------------------|
uuuuuuuuuuuuuuuuuuuuuuu
G-----------------------------------|     -------------------------|
D---------------3--5--3-------------|  X3 -------3-----------------|
A--~3-------5-----------5-----------|     -~3--5---5555555---------|
E-----------------------------------|     -------------------------|
Para ti no ha sido facil....
G------------------------------------------------|
D------------------------------------------------|  X2
A-----------3--33----------------5--5555---------|
E--~3--33--------3--33---5--55-------------------|

Algunos tratan de entender?.      Y no descubren nada en que creer?
G----------------------------------|----------------------------------|
D----------------------------------|----------------------------------|
A-------------------5--5-5-5-5-5---|------------------5--5-5-5-5-5----|
E--1-1-1--3-3-3-3------------------|-1-1-1---3-3-3-3------------------|

Algunos mueren por amor?.         Los derroto el dolor
G------------------------------------|---------------------|
D------------------------------------|---------------------|
A-------------------5--5-5-5-5-5-----|---------------------|
E--1-1-1---3-3-3-3-------------------|-1-1-1---3-3-3-3-----|

uuuuuuuuuuuuuuuuuuuuuuu
G---------------------------------|
D---------------3--5--3-----------|
A--~3-------5-----------5---------|  X4
E---------------------------------|
No trates de entender lo que paso ayer     uuuuuuuuuuuuuuuuuu
G-------------------------------------|    -----------------------|
D---------------3--5--3-----3--5--3---| X3 -------3---------------|
A--~3-------5-----------5-------------|    -~3--5---5555555-------|
E-------------------------------------|    ------------------~3---|
Fin

Bueno aqui una de las cansiones del
disco el batiscafo = es buena la cansion
y no es tan dificil para bajo
asi q eso y xaooo

saludos a los xangos de xixan

viva chile mierda¡¡¡ y los chancho en piedra¡¡¡

            
            
Suggest correction
Creating personal tab
Creating personal tab
You can edit any tab online and save it as your Personal.

You can edit, replace or remove any tab part or add personal notes – all changes will be seen only by you.

Personal tabs can be accessed anytime from any device, even offline.
Learn more »
Give kudos to tab author, rate the tab!
1 2 3 4 5
comments
print report bad tab
guest
Wanna post a correction for this tab? Suggest correction