Oops, an error
Loading. Please wait.

Paquidermo bass

version 1
version 1

Whole song

Interactive

82 views 3 this week
no commentswrite comment
1 2 3 4 5
3 more votes to show rating
add to favorites
×
Save as Personal and add changes to this tab that will be seen only by you. Learn more ›
×
You can save this tab as Personal to edit and correct it or add notes. All changes will be seen only by you. Learn more »
launch autoscroll
font size
0
reset
guitar tuner
edit
Autoscroll
slow
fast
+/-
esc
set tempo
stop
h:hammer on
p:pull off


    INTRO                                                                   
G||--12------------------|----------------------|---------------------|
D||--------13\-----------|----------------------|---------------------|
A||----------------------|-----------------4----|------------2--------|
E||----------------------|--0h---2----2---------|--2/---5-------------|


                                              ESTROFA                       
----------------------|--------------------||-----------------------|
----------------------|-------2------------||*----------------------|
-----------------4----|--2-----------------||*-----------------4----|
--0h---2----2---------|--------------------||---0h---2----2---------|


                                                                  4x
---------------------|----------------------|---------------------||
---------------------|----------------------|-------2------------*||
------------2--------|-----------------4----|--2-----------------*||
--2/---5-------------|--0h---2----2---------|---------------------||


  CORO                                                                   
----------------------|----------------------|----------------------|
----------------------|----------------------|------------2---------|
----------------------|----------------------|----------------------|
--2h---5----5p---2----|--2h---5----5p---2----|--2----0---------1----|


  PUENTE                                                                  
----------------------|---------------------|----------------------|
----------------------|---------------------|----------------------|
-----------------4----|------------2--------|-----------------4----|
--0h---2----2---------|--2/---5-------------|--0h---2----2---------|


                       ESTROFA                                             
--------------------||-----------------------|---------------------|
-------2------------||*----------------------|---------------------|
--2-----------------||*-----------------4----|------------2--------|
--------------------||---0h---2----2---------|--2/---5-------------|


                                            4x  CORO                     
----------------------|---------------------||----------------------|
----------------------|-------2------------*||----------------------|
-----------------4----|--2-----------------*||----------------------|
--0h---2----2---------|---------------------||--2h---5----5p---2----|


                                                 ESTROFA                      
----------------------|----------------------||-----------------------|
----------------------|------------2---------||*----------------------|
----------------------|----------------------||*-----------------4----|
--2h---5----5p---2----|--2----0---------1----||---0h---2----2---------|


                                                                  4x
---------------------|----------------------|---------------------||
---------------------|----------------------|-------2------------*||
------------2--------|-----------------4----|--2-----------------*||
--2/---5-------------|--0h---2----2---------|---------------------||


  CORO                                                                   
----------------------|----------------------|----------------------|
----------------------|----------------------|----------------------|
----------------------|----------------------|----------------------|
--2h---5----5p---2----|--2h---5----5p---2----|--2h---5----5p---2----|


                                               SOLO                      
----------------------|----------------------|----------------------|
----------------------|------------2---------|--2----4----2---------|
----------------------|----------------------|-----------------4----|
--2h---5----5p---2----|--2----0---------1----|----------------------|


                                                                     
----------------------|----------------------|----------------------|
----------------------|----------------------|----------------------|
--3----4----3---------|----------------------|----------------------|
-----------------5----|--2----2----0----5----|--0----2----2----5----|


                                                                     
----------------------|----------------------|----------------------|
----------------------|--2-------------------|--2----4----2---------|
--2---------2h---4----|-------4----2---------|-----------------4----|
-------5--------------|-----------------5----|----------------------|


                                                                     
----------------------|----------------------|----------------------|
----------------------|----------------------|----------------------|
--3----4----3---------|----------------------|----------------------|
-----------------5----|--2----2----0----5----|--0----2----2----5----|


                                                                    
----------------------|----------------------|---------------------|
----------------------|--2---------2h---4----|--2------------------|
--2---------2h---4----|-------4--------------|-------4----2--------|
-------5--------------|----------------------|---------------------|


                                                                     
----------------------|----------------------|----------------------|
----------------------|----------------------|----------------------|
----------------------|----------------------|----------------------|
--2h---5----5p---2----|--2h---5----5p---2----|--2h---5----5p---2----|


                                                                     
----------------------|----------------------|----------------------|
----------------------|----------------------|----------------------|
----------------------|----------------------|----------------------|
--2h---5----5p---2----|--4h---7----7p---4----|--4h---7----7p---4----|


                                                                     
----------------------|----------------------|----------------------|
--2----4----2---------|----------------------|----------------------|
-----------------4----|--3----4----3---------|----------------------|
----------------------|-----------------5----|--2----2----0----5----|


                                                                     
----------------------|----------------------|----------------------|
----------------------|----------------------|--2-------------------|
----------------------|--2---------2h---4----|-------4----2---------|
--0----2----2----5----|-------5--------------|-----------------5----|


                                                                     
----------------------|----------------------|----------------------|
--2----4----2---------|----------------------|----------------------|
-----------------4----|--3----4----3---------|----------------------|
----------------------|-----------------5----|--2----2----0----5----|


                                                                     
----------------------|----------------------|----------------------|
----------------------|----------------------|--2---------2h---4----|
----------------------|--2---------2h---4----|-------4--------------|
--0----2----2----5----|-------5--------------|----------------------|


                       CORO FINAL                                   
---------------------|----------------------|----------------------|
--2------------------|----------------------|----------------------|
-------4----2--------|----------------------|----------------------|
---------------------|--2h---5----5p---2----|--2h---5----5p---2----|


                                                                     
----------------------|----------------------|----------------------|
----------------------|----------------------|-------2---------2----|
----------------------|----------------------|----------------------|
--2h---5----5p---2----|--2h---5----5p---2----|--0---------0---------|


                                            
----------------------|-------------------||
-------3---------3----|-------------------||
----------------------|-------------------||
--1---------1---------|--2----------------||

            
            
Suggest correction
Creating personal tab
Creating personal tab
You can edit any tab online and save it as your Personal.

You can edit, replace or remove any tab part or add personal notes – all changes will be seen only by you.

Personal tabs can be accessed anytime from any device, even offline.
Learn more »
Give kudos to tab author, rate the tab!
1 2 3 4 5
comments
print report bad tab
guest
Wanna post a correction for this tab? Suggest correction