Oops, an error
Loading. Please wait.

Rojito Veo El Mundo bass

49 views 1 this week
no commentswrite comment
1 2 3 4 5
3 more votes to show rating
add to favorites
×
Save as Personal and add changes to this tab that will be seen only by you. Learn more ›
×
You can save this tab as Personal to edit and correct it or add notes. All changes will be seen only by you. Learn more »
launch autoscroll
font size
0
reset
guitar tuner
edit
Autoscroll
slow
fast
+/-
esc
set tempo
stop
Por: Jµªn§µðª|

Ezta ez la verzion ez del dizco Chancho6 ta rewena

G----------------------------
D----------------------------
A-----4----------------------
E---2---2-5--5-0--0----------
x8 vezez

G----------------------------
D-------4-2---------7-5------
A-----4-----4-6---7----------
E---2-----------5------------
x7 vezez

G----------------------------
D-------4-2---------7-5------
A-----4-----4-6---7-----7-5--
E---2-----------5------------

G-----------------------------------------------
D--------------4p2-----------------4p2----------
A------------------4---2-3-4-----------4--------
E---3--3--2-2-----------------2-2--------3?-3---

G----------------------------(vegetalma)--
D--------4p2-----------------4p2----------
A------------4---2-3-4-----------4--------
E---2-2-----------------2-2--------3?-3---

G----6p4---------------4p2-------------2p0--------------------------------
D--------6-5-4~-2h4--------2-4/5-4~--------2-4/5-4~-2h4--------6~-4h6p4---
A-4~----------------2~--------------0~---------------------4h6----------6-
E-------------------------------------------------------4~----------------
x2 vezez

G-------------------------4-------------4----------------------
D----2---2-4--------4-4/6---6~----2-2h4---4~--------6~-4h6p4---
A-4~---4-----4-3-2~------------0~---------------4h6----------6-
E--------------------------------------------4~----------------
x6 vezez

G-------(rjto vl mndo)---
D---------5-4-2---2------
A?2-4~--4-------4---4----
E------------------------

(solo)
G----------------------------9----9----9-11-12-11-9--------------
D-----------------------9-11---11---11--------------11-9---------
A?-----9-10-9----9-9-12----------------------------------11-9-7--
E-9-12--------12-------------------------------------------------

G------------------------
D---------5-4-2-0--------
A?2-4~--4---------4-2-4--
E------------------------

G---------------------------4-6?(x l vntna del lma)---
D-------------------2-4-4-6----------5-4-2-0----------
A?2-4~---4-6~---2-4--------------4---------4-2-4------
E-----------------------------------------------------

Eztá 99% correcta canzión tiene hartaz variaziones
Pero ezo queda al criterio de udz. Yo solo doy la baze
Me ofrezco como bajizta para grupo de cualquier indole
Toy equipao y con amplificador, tengo experienzia
Azi que zi alguien me nezezita mandenme un mail
(Coté Ayloviu, yetem)

            
            
Suggest correction
Creating personal tab
Creating personal tab
You can edit any tab online and save it as your Personal.

You can edit, replace or remove any tab part or add personal notes – all changes will be seen only by you.

Personal tabs can be accessed anytime from any device, even offline.
Learn more »
Give kudos to tab author, rate the tab!
1 2 3 4 5
comments
print report bad tab
guest
Wanna post a correction for this tab? Suggest correction