Oops, an error
Loading. Please wait.

Sinfonia De Cuna tab

version 2
version 2

Whole song

100 views 1 this week
no commentswrite comment
1 2 3 4 5
3 more votes to show rating
add to favorites
×
Save as Personal and add changes to this tab that will be seen only by you. Learn more ›
×
You can save this tab as Personal to edit and correct it or add notes. All changes will be seen only by you. Learn more »
launch autoscroll
font size
0
reset
how to read this tab
guitar tuner
edit
Autoscroll
slow
fast
+/-
esc
set tempo
stop
esta es la origuinal y mejor

intro, verso

E------------------------------------------------------
B-------9h11-9-------------------9h11-9-11-12-11-9-----
G--9h11-9g11-9--11-9-11----9h11--9h11-9-11-12-11-9--11-
D--9h11---------11-9-11----9h11---------------------11-
A------------------------------------------------------
E------------------------------------------------------

E------------------------------------------------------
B-------9h11-9-------------------9-----11-----9--------
G--9h11-9h11-9--11-9-11----9h11--9-----11-----9---11---
D--9h11---------11-9-11----9h11----9h11---9h11----11---
A------------------------------------------------------
E------------------------------------------------------

coro   tule ponis el ritmo funk


  F#m      C#m       D         E       B   A  G# G
E-222222--4444444--55555555--7777777--7777555544333----
B-222222--5555555--77777777--9999999--7777555544333----
G-222222--6666666--77777777--9999999--7777555544333----
D-444444--6666666--77777777--9999999--9999777766555----
A-444444--4444444--55555555--7777777--9999777766555---
E-222222--4444444--55555555--7777777--7777555545333----

E-222222--4444444--55555555--777777777777777-----------
B-222222--5555555--77777777--999999999999999-----------
G-222222--6666666--77777777--999999999999999-----------
D-444444--6666666--77777777--999999999999999-----------
A-444444--4444444--55555555--777777777777777-----------
E-222222--4444444--55555555--777777777777777-----------


solo, gosenlo ()hartas veses

E------------------------------------------------------
B-----------------------12\----------------13*---------
G-(9h11)----12*---------------------12---------12------
D-----------------12---------12--14---------------14-12
A------------------------------------------------------
E------------------------------------------------------

E------------------------------------------------------
B------------------------------------------------------
G----------------------------------------------12*--12-
D-12-12-12-14-12--12-12-14-12--12-12-12-14-12----------
A------------------------------------------------------
E------------------------------------------------------

E---------------------------------------------------------
B-----------------------------------13*-------------------
G--------9-11-11-9-11-9-11-9-11-11*-----12-10-------------
D-14-12---------------------------------------12-12-10-12-
A---------------------------------------------------------
E---------------------------------------------------------

E------------------------------------------------------
B-----------------------------------13*-13*-13*--------
G--------9-11-11-9-11-9-11-9-11-11*--------------------
D------------------------------------------------------
A------------------------------------------------------
E------------------------------------------------------


intro                  /=deslizar arriba
verso                  \=deslizar abajo
coro                   h=ligar
verso                  *=doblar o vibrar
coro
puente 
solo bajo
solo 
coro x2
outro
intro


esta SINFONIA ESLA MEJOR y mejor sacada el outro no me
lo se pero yo toco el coro del bajo y ViVa ChIlE mIeRdA
y LoS cHaNcHo En PiEdRa!!!!!!!!!!!!!!

            
            
Suggest correction
Creating personal tab
Creating personal tab
You can edit any tab online and save it as your Personal.

You can edit, replace or remove any tab part or add personal notes – all changes will be seen only by you.

Personal tabs can be accessed anytime from any device, even offline.
Learn more »
Give kudos to tab author, rate the tab!
1 2 3 4 5
comments
print report bad tab
guest
Wanna post a correction for this tab? Suggest correction