Oops, an error
Loading. Please wait.

Solo Contra El Mundo bass

178 views 1 this week
no commentswrite comment
1 2 3 4 5
3 more votes to show rating
add to favorites
×
Save as Personal and add changes to this tab that will be seen only by you. Learn more ›
×
You can save this tab as Personal to edit and correct it or add notes. All changes will be seen only by you. Learn more »
launch autoscroll
font size
0
reset
guitar tuner
edit
Autoscroll
slow
fast
+/-
esc
set tempo
stop
se nota ke hace harto no mandaba tablaturas aki hay varias pa ke disfruten tokando 


Verso
(Del porte de un....)
|----------------------------------------------3-5------------------------|
|------1---3/5----5-3-------3----------1---3/5-----3-4-3-1--1-3/5-1-3-----|
|--3-----3------3-------1/3---1--2-3-----3----------------------------1...|
|-------------------------------------------------------------------------|

(Mi neurona ha llamado....)
|---------------------------------------3-5------------------------|
|-----1--------------3----------1---3/5-----3-4--3---1-3/5-1-3-----|
|-3-----3----1-3--------1--2-3----3----------------------------1-2-|
|---------3------1-------------------------------------------------|

Post-Verso
(Yo voy a descubrir....)
|--------------------------------------------------------------------------------------|
|---0-1---0-1----1-----0-1---------3-1-----0-1---0-1----1----0-1-------------3/5---3-1-|
|-3-----3------3-----3-------------------3-----3------3----3-----------3-2-1-----6-----|
|--------------------------3-2-1---------------------------------3-2-1-----------------|

         (De esta realidad.....)
|---------------------------------------------------------------|
|---0-1----1----0-1--------3-1----0-1---0-1---1-----------------|
|-3------3----3-----------------3-----3-----3----1-2-3--------1-|
|-------------------3-2-1------------------------------1-2-3----|

Verso
(Quiero que nadie se....)
|----------------------------------------------3-5------------------------|
|------1---3/5----5-3-------3----------1---3/5-----3-4-3-1--1-3/5-1-3-----|
|--3-----3------3-------1/3---1--2-3-----3----------------------------1...|
|-------------------------------------------------------------------------|

(El sonido es mi apellido....)
|---------------------------------------3-5------------------------|
|-----1--------------3----------1---3/5-----3-4--3---1-3/5-1-3-----|
|-3-----3----1-3--------1--2-3----3----------------------------1-2-|
|---------3------1-------------------------------------------------|

Pre-coro
(Desde hoy quiero seguir....)
|--------------------------------------------------------------------------------------|
|---0-1---0-1----1-----0-1---------3-1-----0-1---0-1----1----0-1-------------3/5---3-1-|
|-3-----3------3-----3-------------------3-----3------3----3-----------3-2-1-----6-----|
|--------------------------3-2-1---------------------------------3-2-1-----------------|

         (Con plena autoridad.....)
|------------------------------------------------------------------5-4-3-----------------|
|---0-1----1----0-1--------3-1----0-1---0-1---1--------------3-2-1------------5-7-7-5-7--|
|-3------3----3-----------------3-----3-----3----------3-2-1--------------6-8------------|
|-------------------3-2-1------------------------3-2-1-----------------------------------|

Coro 
(Tu puede que me caigas bien.....)
|--------------------------------------------------------------------------------------|
|-----------5-----------------3-----------8---------8----------------------------------|
|---5---------5----------3------1---3--6----6-----6---6---6-6-6/8-10-8-------6---8-6---|
|-3---3---3-----3--1-3-1---1--------------------8----------------------6-6-8---8-----8-|

  (Puede que me sienta bien...)
|----------------------------------------------------------------------------|
|-----------5-----------------3-----------8---------8------------------------|
|---5---------5----------3------1---3--6----6-----6---6---6-6-6h8-6--------6-|
|-3---3---3-----3--1-3-1---1--------------------8-------------------8--6-8---|

Post-Coro
|----------------------------------------------------------------|
|--------------------------------------------------------------3-|
|-6-3-5-6-5-3-6-3-6-3-5-6-5-3-6-3-6-3-5-6-5-3-6-3--5-6-5-3-1-0---|
|----------------------------------------------------------------|

|--------------------------------------------------------------------|
|--------------------------------------------------------------6-----|
|-6-3-5-6-5-3-6-3-6-3-5-6-5-3-6-3-6-3-5-6-5-3-6-3--5-6-5-------------|
|--------------------------------------------------------6-5-4-------|

(Yo voy a descubrir....)
|--------------------------------------------------------------------------------------|
|---0-1---0-1----1-----0-1---------3-1-----0-1---0-1----1----0-1-------------3/5---3-1-|
|-3-----3------3-----3-------------------3-----3------3----3-----------3-2-1-----6-----|
|--------------------------3-2-1---------------------------------3-2-1-----------------|

         (De esta realidad.....)
|------------------------------------------------------------------5-4-3--------12-15-15-12-15-16-|
|---0-1----1----0-1--------3-1----0-1---0-1---1--------------3-2-1--------13-15-------------------|
|-3------3----3-----------------3-----3-----3----------3-2-1--------------------------------------|
|-------------------3-2-1------------------------3-2-1--------------------------------------------|

(Solo de Guitarra)
|---------------------------------------------------------------------------------------------|
|---------------------------------------------------------------------------------------------|
|---------------------------------------------------------------------------------------------|
|---------------------------------------------------------------------------------------------|
 
(Naceras,creceras.....)
|--------------------------------------------------------------------------------------|
|-----------5-----------------3-----------8---------8----------------------------------|
|---5---------5----------3------1---3--6----6-----6---6---6-6-6/8-10-8-------6---8-6---|
|-3---3---3-----3--1-3-1---1--------------------8----------------------6-6-8---8-----8-|

(Viviras,moriras.....)
|--------------------------------------------------------------------------------------|
|-----------5-----------------3-----------8---------8----------------------------------|
|---5---------5----------3------1---3--6----6-----6---6---6-6-6/8-10-8-------6---8-6---|
|-3---3---3-----3--1-3-1---1--------------------8----------------------6-6-8---8-----8-|

(Naceras,creceras.....)
|--------------------------------------------------------------------------------------|
|-----------5-----------------3-----------8---------8----------------------------------|
|---5---------5----------3------1---3--6----6-----6---6---6-6-6/8-10-8-------6---8-6---|
|-3---3---3-----3--1-3-1---1--------------------8----------------------6-6-8---8-----8-|

(Viviras,moriras.....)
|--------------------------------------------------------------------------------------|
|-----------5-----------------3-----------8---------8----------------------------------|
|---5---------5----------3------1---3--6----6-----6---6---6-6-6/8-10-8-------6---8-6---|
|-3---3---3-----3--1-3-1---1--------------------8----------------------6-6-8---8-----8-|
(Se siente demente.....)
|--------------------------------------------------------------------------------------|
|-----------5-----------------3-----------8---------8----------------------------------|
|---5---------5----------3------1---3--6----6-----6---6---6-6-6/8-10-8-------6---8-6---|
|-3---3---3-----3--1-3-1---1--------------------8----------------------6-6-8---8-----8-|

(Se siente demente .....)
|--------------------------------------------------------------------------------------|
|-----------5-----------------3-----------8---------8----------------------------------|
|---5---------5----------3------1---3--6----6-----6---6---6-6-6/8-10-8-------6---8-6---|
|-3---3---3-----3--1-3-1---1--------------------8----------------------6-6-8---8-----8-|
(Puede que me caigas bien.....)
|--------------------------------------------------------------------------------------|
|-----------5-----------------3-----------8---------8----------------------------------|
|---5---------5----------3------1---3--6----6-----6---6---6-6-6/8-10-8-------6---8-6---|
|-3---3---3-----3--1-3-1---1--------------------8----------------------6-6-8---8-----8-|

(Puede que me sienta bien...)                                       (Me tendre que...)
|----------------------------------------------------------------------------|
|-----------5-----------------3-----------8---------8------------------------|
|---5---------5----------3------1---3--6----6-----6---6---6-6-6h8-6--------6-|
|-3---3---3-----3--1-3-1---1--------------------8-------------------8--6-8---|

                                                (Voy solo contra el mundo)
|--------------------------------------------------------------------|
|--------------------------------------------------------------6-----|
|-6-3-5-6-5-3-6-3-6-3-5-6-5-3-6-3-6-3-5-6-5-3-6-3--5-6-5-------------|
|--------------------------------------------------------6-5-4-------|

kuidense harto y disfruten  harto ke depues yo los...
kiero eskhuchar jijiji.

CHEP.

FunKLipE.

            
            
Suggest correction
Creating personal tab
Creating personal tab
You can edit any tab online and save it as your Personal.

You can edit, replace or remove any tab part or add personal notes – all changes will be seen only by you.

Personal tabs can be accessed anytime from any device, even offline.
Learn more »
Give kudos to tab author, rate the tab!
1 2 3 4 5
comments
print report bad tab
guest
Wanna post a correction for this tab? Suggest correction