Oops, an error
Loading. Please wait.

Goodbye Pork Pie Hat bass

version 1
version 1

Whole song

Interactive

1,096 views 24 this week
no commentswrite comment
1 2 3 4 5
3 more votes to show rating
add to favorites
×
Save as Personal and add changes to this tab that will be seen only by you. Learn more ›
×
You can save this tab as Personal to edit and correct it or add notes. All changes will be seen only by you. Learn more »
launch autoscroll
font size
0
reset
guitar tuner
edit
Autoscroll
slow
fast
+/-
esc
set tempo
stop
Author
                             Goodbye Pork Pie Hat
                               Charles Mingus
 
Bass                                                          Charles Mingus
       ___
      | 3 |
E E = Q   E

Head
                                                                      ___
   Eb7     B13       E6/9    A7b5    Db9(sus4) B13     Db9(sus4) Ebm9| 3 |
G|-----------------|-----------------|-----------------|-------------------|
D|-1---------------|-2---2-----------|-----------------|---------------8-7-|
A|---------2---2---|---------0---0---|-4---4---2---2---|-4---4---6---6-----|
E|-----------------|-----------------|-----------------|-------------------|
   H       Q   Q     Q   Q   Q   Q     Q   Q   Q   Q     Q   Q   Q   E E E

   Abm9    B9        Fm9     Bb7       C13     F13       B7      E6/9
G|-----------------|-----------------|-----------------|-----------------|
D|-6---6-----------|-3---3-----------|-----------------|-----------------|
A|---------2---2---|---------1-1-1-2-|-3---3/--8---8---|-----------------|
E|-----------------|-----------------|-----------------|-7---7\--4---0---|
   Q   Q   Q   Q     Q   Q   E E E E   Q   Q   Q   Q     Q   Q   Q   Q
                                  ___                                   ___
   A13     Ab7       Bb7     Db7 | 3 |   Eb7     B13       E6/9    A7b5| 3 |     
G|-----------------|---------------1-3-|-----------------|---------------1-3-|
D|---------6---6---|-------------------|-1---1-----------|-2---2-------------|
A|-0---0-----------|-1---1---4---4-----|---------2---2---|---------0---0-----|
E|-----------------|-------------------|-----------------|-------------------|
   Q   Q   Q   Q     Q   Q   Q   E E E   Q   Q   Q   Q     Q   Q   Q   E E E 

   Eb7     B13       E6/9    A7b5    Db9(sus4) B13     Db9(sus4) Ebm9
G|-----------------|-----------------|-----------------|-----------------|
D|-1---1-----------|-2---2-----------|-----------------|-----------------|
A|---------2---2---|---------0---0---|-4---4---2---2---|-4---4---6---6---|
E|-----------------|-----------------|-----------------|-----------------|
   Q   Q   Q   Q     Q   Q   Q   Q     Q   Q   Q   Q     Q   Q   Q   Q

   Abm9    B9        Fm9     Bb7       C13     F13       B7      E6/9
G|-----------------|-----------------|-----------------|-----------------|
D|-6---6-----------|-3---3-----------|-----------------|-----------------|
A|---------2---2---|---------1-1-1-2-|-3---3/--8---8---|-----------------|
E|-----------------|-----------------|-----------------|-7---7\--0---0---|
   Q   Q   Q   Q     Q   Q   E E E E   Q   Q   Q   Q     Q   Q   Q   Q
                                  ___ 
   A13     Ab7       Bb7     Db7 | 3 |   Eb7     B13       E6/9    A7b5     
G|-----------------|---------------1-3-|-----------------|-----------------|
D|-----------------|-------------------|-1---1-----------|-2--2--2---------|
A|-0---0-----------|-1---1---4---4-----|---------2---2---|---------0---0---|
E|---------4---4---|-------------------|-----------------|-----------------|
   Q   Q   Q   Q     Q   Q   Q   E E E   Q   Q   Q   Q     E. E. E Q   Q 

Sax Solo
        ___       ___         ___       ___         ___       ___
   Ebm9| 3 |     | 3 |       | 3 |     | 3 |   Eb13| 3 |     | 3 |
G|-------8-------------|-------8-------------|-------8-------------|-----------------|
D|---------8-6---6-7-8-|---------8-6---6-7-8-|---------8-6---6-7-8-|-----------------|
A|-6---6---------------|-6---6---------------|-6---6---------------|-6-------0-------|
E|---------------------|---------------------|---------------------|-----------------|
   Q   E E E Q   E E E   Q   E E E Q   E E E   Q   E E E Q   E E E   H       H

                                  ___         ___       ___         ___       ___  
   Abm9    Fm7b5     B7b5    E7  | 3 |   Ebm9| 3 | Ab13| 3 |   Ebm9| 3 | Ab13| 3 |
G|-----------------|-------------------|-------8-------------|-------8-------------|
D|-----------------|---------------5-8-|---------8-6---6-7-8-|---------8-6---6-4-0-|
A|-----------------|-2---2-2/7---7-----|-6---6---------------|-6---6---------------|
E|-4---4---4---4---|-------------------|---------------------|---------------------|
   Q   Q   Q   Q     Q   E E Q   E E E   Q   E E E Q   E E E   Q   E E E Q   E E E

                                                    ___       ___ 
   Cm7b5       Cm7b5/F   F7      B7  Bb7       Ebm9| 3 | Ab13| 3 |   Ebm9    Bb13
G|---------------------|-------------------3-|---------------------|---------3---3---|
D|-------0-1-2-3---3---|-3---3---------0-3---|---------8-6---6-7-8-|-1---1-----------|
A|-3---3---------------|---------2---1-------|-6---6---------------|-----------------|
E|---------------------|---------------------|---------------------|-----------------|
   Q   S S S S Q   Q     Q   Q   Q   S S S S   Q   E E E Q   E E E   Q   Q   Q   Q

Bass/Sax Solo
                                                                      ___
   Eb7     B13       E6/9    A7b5      Db7sus4 B13       Db7sus4 Eb7 | 3 |
G|-8tr---------6tr-|-3tr-------------|-11tr----8tr-6tr-|-4tr-----3---3-0-1|
D|-----------------|-----------------|-----------------|------------------|
A|-----------------|-----------------|-----------------|------------------|
E|-----------------|-----------------|-----------------|------------------|
   H.          Q     W                 H       Q   Q     H       Q   E E E
                                         Cm7b5        F7
        ___                                   _____    _____   _____
   Abm9| 3 | B13       Fm9     Bb7           |  3  |  |  3  | |  3  |
G|-1-----------------|-----------------|-----10-10-10-10-8----10-8----|
D|-----1-0-----------|-----------------|-------------------10------10-|
A|---------0---------|-3--/8-----------|-6----------------------------|
E|-----------4---4---|-------0-----0-4-|------------------------------|
   Q   E E E Q   Q     Q   E Q.    E E   Q   E  E  E  E  E  E E  E  E

   B13             E6/9
    _____   ______  _____   ___         _____                         ___
   |  3  | |  3  | |  3  | | 3 |   A13 |  3  | Ab7       Bb7     Db7 | 3 |
G|-10-8----10-8----10-8----8-----|---------------------|-----------------3-|
D|------10------10------10---5---|---------1-2-3---3---|-4---4---------5---|
A|-----------------------------5-|-3---3-5-------------|---------2---2-----|
E|-------------------------------|---------------------|-------------------|
   E  E E  E  E E  E  E E  E E E   Q   E E S S Q   Q     Q   Q   Q   E E E

   Eb7         B13
    ___   ___   ___   _____
   | 3 | | 3 | | 3 | |  3  |   E6/9    A7b5
G|---8---7-----8---8-7-----3-|---------3---3-3-|
D|---------------------4-6---|-1---1-----------|
A|-6---6-----6---6-----------|-----------------|
E|---------------------------|-----------------|
   E E E Q   E E E E E S S E   Q   Q   Q   E E

Head
                                                              ___       ___
   Eb7     B13       E6/9    A7b5    Db9(sus4) B13       Db9 | 3 | Ebm9| 3 |
G|-----------------|-----------------|-----------------|-----------------8---|
D|-1---1-----------|-2---2-----------|-----------------|-------6-8---------7-|
A|---------2---2---|---------0---0---|-4---4---2---2---|-4---4-----6---6-----|
E|-----------------|-----------------|-----------------|---------------------|
   Q   Q   Q   Q     Q   Q   Q   Q     Q   Q   Q   Q     Q   E E E Q   E E E
                                                    ___
   Abm9    B9        Fm9     Bb7       C13     F13 | 3 |  B7      E6/9
G|-----------------|-----------------|-------------------|-----------------|
D|-6---6-----------|-3-----3---------|---------3---3-6-4-|-----------------|
A|-------4-2-----2/|---------1---1-2-|-3---3-3-----------|-2---2\----------|
E|-----------------|-----------------|-------------------|---------0---0---|
   Q   Q   Q.    E   Q.    E E E E E   Q   Q   Q   E E E   Q   Q   Q   Q
                                  ___                 ___                 ___
   A13     Ab7       Bb7     Db7 | 3 |   Eb7     B13 | 3 |   E6/9    A7b5| 3 |
G|-----------------|---------------1-3-|----/8---------4---|---------------1-3-|
D|-----------------|-------------------|-1-----8---------3-|-2---2-------------|
A|-0---0-----------|-1---1---4---4-----|---------2---2-----|---------0---0-----|
E|---------4---4---|-------------------|-------------------|-------------------|
   Q   Q   Q   Q     Q   Q   Q   E E E   Q   E E Q   E E E   Q   Q   Q   E E E
                                                                      ___
   Eb7     B13       E6/9    A7b5    Db9(sus4) B13     Db9(sus4) Ebm9| 3 |
G|-----------------|-----------------|-----------------|---------------8---|
D|-1---1-----------|-2---2-----------|-----------------|-----------------7-|
A|---------2---2---|---------0---0---|-4---4---2---2---|-4---4---6---6-----|
E|-----------------|-----------------|-----------------|-------------------|
   Q   Q   Q   Q     Q   Q   Q   Q     Q   Q   Q   Q     Q   Q   Q   E E E
                                      ___         ___
   Abm9    B9            Fm9     Bb7 | 3 |   C13 | 3 | F13       B7      E6/9
G|-------8-------------|-------------------|-------5-----------|-----------------|
D|-6---6---6-----------|-3---3-----------0-|---------4-3---3---|-----------------|
A|-----------4-2---2---|---------1---1-1---|-3---3-------------|-2---2\----------|
E|---------------------|-------------------|-------------------|---------0---0---|
   Q   S S S S Q   Q     Q   Q   Q   E E E   Q   E E E Q   Q     Q   Q   Q   Q

                                                             E6/9    A7b5 
                                  ___         ___             _____   _____
   A13     Ab7       Bb7     Db7 | 3 |   Eb7 | 3 | B13       |  3  | |  3  |
G|-----------------|---------------1-3-|-------3-----------|---------2--2-----|
D|-----------------|-------------------|-1---1---0---------|-2--2--2----------|
A|-0---0-----------|-1---1---4---4-----|-----------2-------|------------------|
E|---------4---4---|-------------------|-------------------|------------------|
   Q   Q   Q   Q     Q   Q   Q   E E E   Q   E E E H         Q  Q  Q Q  H

   Eb7
G|-----------------|-----------------|-----------------||
D|-1---------------|(1)--------------|(1)------1---1---||
A|-----------------|-----------------|-----------------||
E|-----------------|-----------------|-----------------||
   W                 W                 H       Q   Q


Key to rhythm notations:

W - Whole Note/Semi-Brieve
H - Half Note/Minim
Q - Quarter Note/Crotchet       Q. - Dotted Quarter Note
E - Eight Note/Quaver           E. - Dotted Eight Note
S - Sixteenth Note/Semi-Quaver  S. - Dotted Sixteenth Note

            
            
Suggest correction
Creating personal tab
Creating personal tab
You can edit any tab online and save it as your Personal.

You can edit, replace or remove any tab part or add personal notes – all changes will be seen only by you.

Personal tabs can be accessed anytime from any device, even offline.
Learn more »
Give kudos to tab author, rate the tab!
1 2 3 4 5
comments
print report bad tab
guest
You may want to rate the tab now too:
select rating
Wanna post a correction for this tab? Suggest correction