Oops, an error
Loading. Please wait.

Goodbye Pork Pie Hat tab

version 1
version 1

Whole song

Interactive

496 views 24 this week
1 commentread comment
1 2 3 4 5
x 3
add to favorites
×
Save as Personal and add changes to this tab that will be seen only by you. Learn more ›
×
You can save this tab as Personal to edit and correct it or add notes. All changes will be seen only by you. Learn more »
launch autoscroll
font size
0
reset
how to read this tab
guitar tuner
edit
Autoscroll
slow
fast
+/-
esc
set tempo
stop
Author
Difficulty
Goodbye Pork Pie Hat - Charles Mingus 
Track 2 
Mingus Ah Um 1959 

[Main riff]
e|--------------------------------|---------------------------------|---6-9--------------6--11-|
B|------7---7--9-7-------7--------|-----7---7--9/10-9-------7-------|---------7-9-7----7-------|
G|----8---8--------8-6-8---8-6-8--|---8---8-----------8-6-8---8-6-8-|-8-----8--------8---------|
D|--8-----------------------------|-8-------------------------------|--------------------------|
A|--------------------------------|---------------------------------|--------------------------|
E|--------------------------------|---------------------------------|--------------------------|

e|-----9--6----|-------------|--------------------|---------------------------|-6---------|
B|-7-9-----7---|-7-10-----10-|-6-7------10-9-7----|-9-7-------10-9-------7--4-|---9-7-----|
G|----------7--|------9-8----|------8-----------8-|-----8-6--------11-8-------|-------8-6-| (x2) 
D|-----------8-|-------------|--------------------|---------------------------|-----------|
A|-------------|-------------|--------------------|---------------------------|-----------|
E|-------------|-------------|--------------------|---------------------------|-----------|

(On repeat the tenor sax is doubled by a baritone sax playing the melody an octive lower)
e|--------------------------------|--------------------------------|------------------------|
B|--------------------------------|--------------------------------|----------------------4-|
G|--------------------------------|--------------------------------|---3-6--------------3---|
D|------4---4--6-4-------4--------|-----4---4--6/7-6-------4-------|---------4-6-4----4-----|
A|----6---6--------6-4-6---6-4-6--|---6---6----------6-4-6---6-4-6-|-6-----6--------6-------|
E|--6-----------------------------|-6------------------------------|------------------------|

e|----------------|-----------|------------------|----------------------|-----------|
B|----------------|-----------|------------------|----------------------|-----------|
G|-----6--3-------|-----------|------------------|----------------------|-3---------|
D|-4-6------4-----|-4-7-----7-|-3-4-----7-6-4----|-6-4-----7-6-4---4----|---6-4-----|
A|------------5---|-----7-6---|------6---------6-|-----6-4-------6----6-|-------6-4-|
E|--------------6-|-----------|------------------|----------------------|-----------|

[Solo 1]
e|---------------|------------------------------|-------------------|---------------|
B|---------------|------------9-7-11--9\8\7\6---|-------------------|---------------|
G|---10--8-------|-10-8-11-10----------------8--|-------------------|---------------|
D|-8------8----6-|----------------------------8-|-11-9-8------------|-8(9)8-6-------|
A|---------9-6---|------------------------------|--------11-9---7/8-|--------6------|
E|---------------|------------------------------|-------------6-----|---------7-6-4-|

e|------------------------------|-----------------------|------------------|-----------------------|---------|
B|------------------------------|--------9--7-9-7--9-11-|-----11~----------|-9---------------------|---------|
G|-12-----11-11\10\9\8----------|-8(10)8----------------|-4/11-----11-10-8-|--11-10-8--------------|---------|
D|----8/9--------------9-8------|-----------------------|------------------|----------8------6-----|-11-8-9~-|
A|-------------------------11-9-|-----------------------|------------------|-----------9-8-6---8-9-|---------|
E|------------------------------|-----------------------|------------------|-----------------------|---------|

e|----------------------|-----------------------------------------------|
B|----------------------|----------------11/14\13--13-11----------------|
G|-9-10-9-7-------------|--------------------------------11-10-8--------|
D|----------11-9-8------|--------8/11\10-------------------------10-8\--|
A|-----------------11-9-|--8-5-6----------------------------------------|
E|----------------------|-----------------------------------------------|

[Main riff]
e|--------------------------------|---------------------------------|---6-9--------------6--11-|
B|------7---7--9-7-------7--------|-----7---7--9/10-9-------7-------|---------7-9-7----7-------|
G|----8---8--------8-6-8---8-6-8--|---8---8-----------8-6-8---8-6-8-|-8-----8--------8---------|
D|--8-----------------------------|-8-------------------------------|--------------------------|
A|--------------------------------|---------------------------------|--------------------------|
E|--------------------------------|---------------------------------|--------------------------|

e|-----9--6----|-------------|--------------------|---------------------------|-6---------|
B|-7-9-----7---|-7-10-----10-|-6-7------10-9-7----|-9-7-------10-9-------7--4-|---9-7-----|
G|----------7--|------9-8----|------8-----------8-|-----8-6--------11-8-------|-------8-6-| (x2) 
D|-----------8-|-------------|--------------------|---------------------------|-----------|
A|-------------|-------------|--------------------|---------------------------|-----------|
E|-------------|-------------|--------------------|---------------------------|-----------|

(On repeat the tenor sax is doubled by a baritone sax playing the melody an octive lower)
e|--------------------------------|--------------------------------|------------------------|
B|--------------------------------|--------------------------------|----------------------4-|
G|--------------------------------|--------------------------------|---3-6--------------3---|
D|------4---4--6-4-------4--------|-----4---4--6/7-6-------4-------|---------4-6-4----4-----|
A|----6---6--------6-4-6---6-4-6--|---6---6----------6-4-6---6-4-6-|-6-----6--------6-------|
E|--6-----------------------------|-6------------------------------|------------------------|

e|----------------|-----------|------------------|----------------------|-----------|
B|----------------|-----------|------------------|----------------------|-----------|
G|-----6--3-------|-----------|------------------|----------------------|-3---------|
D|-4-6------4-----|-4-7-----7-|-3-4-----7-6-4----|-6-4-----7-6-4---4----|---6-4-----|
A|------------5---|-----7-6---|------6---------6-|-----6-4-------6----6-|-------6-4-|
E|--------------6-|-----------|------------------|----------------------|-----------|

[Coda]
e|--------------|
B|--------------|
G|-3-3/13~~~~~--|
D|--------------|
A|--------------|
E|--------------|


************************************

| /    Slide up
| \    Slide down
| (n)  Ghost note
| ~    Vibrato

************************************

            
            
Suggest correction
Creating personal tab
Creating personal tab
You can edit any tab online and save it as your Personal.

You can edit, replace or remove any tab part or add personal notes – all changes will be seen only by you.

Personal tabs can be accessed anytime from any device, even offline.
Learn more »
Give kudos to tab author, rate the tab!
1 2 3 4 5
comments
print report bad tab
1 comment total.
0 reply
steelgold11 10 Apr 10, 2017 09:35 PM

great and accurate tab! such a fun song to play. thanks!

guest
You may want to rate the tab now too:
select rating
Wanna post a correction for this tab? Suggest correction