Oops, an error
Loading. Please wait.

Break The Rules tab

version 2
version 2

Whole song

416 views 9 this week
1 commentread comment
1 2 3 4 5
2 more votes to show rating
add to favorites
×
Save as Personal and add changes to this tab that will be seen only by you. Learn more ›
×
You can save this tab as Personal to edit and correct it or add notes. All changes will be seen only by you. Learn more »
launch autoscroll
font size
0
reset
how to read this tab
guitar tuner
edit
Autoscroll
slow
fast
+/-
esc
set tempo
stop
There are many ways to play this song.  I chose to tab it in drop D so you can play
the low D# note at the first fret.

I tried to tab the keyboards as best as I could.  Obviously you can try different
variations, but I find this is best.

You can play the verse as either single notes or power chords.  The intro I included is
the bass line, which I also play on guitar.

Guitar #2 in the chorus takes the place of the keyboard.


[Intro]

e|---------------------------------------------------------------------------|
B|---------------------------------------------------------------------------|
G|---------------------------------------------------------------------------|
D|---------------------------------------------------------------------------|  x5
A|-------------------6-6-6---------------------------------------------------|
D|10-10-10-8-8-6-6-6-------3-3-3-3-3-----------------------------------------|

"Never stop it's how we ride..."
e|---------------------------------------------------------------------------|
B|---------------------------------------------------------------------------|
G|---------------------------------------------------------------------------|
D|---------------------------------------------------------------------------|
A|---------------------------------------------------------------------------|
D|3-3-3-3-3-3-3-3-3-3-3-3-1-1-1-X--------------------------------------------|


[Verse]

e|---------------------------------------------------------------------------|
B|---------------------------------------------------------------------------|
G|---------------------------------------------------------------------------|
D|-------------------8-8-8---------------------------------------------------| x2
A|10-10-10-8-8-6-6-6-6-6-6-3-3-3-3-3-----------------------------------------|
D|10-10-10-8-8-6-6-6-------3-3-3-3-3-----------------------------------------|


"Never stop it's how we ride..."
e|---------------------------------------------------------------------------|
B|---------------------------------------------------------------------------|
G|---------------------------------------------------------------------------|
D|---------------------------------------------------------------------------|
A|3-3-3-3-3-3-3-3-3-3-3-3-1-1-1-X--------------------------------------------|
D|3-3-3-3-3-3-3-3-3-3-3-3-1-1-1-X--------------------------------------------|


[Chorus #1]

Guitar #1
   
  Cm                G#                D#                A#
e|---------------------------------------------------------------------------|
B|------------------------------------8--------------------------------------|
G|12----------------8-----------------8-----------------10-------------------|
D|10----------------6-----------------8-----------------8--------------------| x3
A|10----------------6-----------------6-----------------8--------------------|
D|10----------------6-----------------------------------8--------------------|

  Cm                G#                D#                x
e|---------------------------------------------------------------------------|
B|------------------------------------8--------------------------------------|
G|12----------------8-----------------8-----------------x--------------------|
D|10----------------6-----------------8-----------------x--------------------| x1
A|10----------------6-----------------6-----------------x--------------------|
D|10----------------6-----------------------------------x--------------------|


[Chorus #1]

Guitar #2 (3rd time through chorus chord progression)
  
  Cm                      G#                      D#                      A#
e|------------------------------------------------------------------------------------------------|
B|------------------------------------------------------------------------------------------------|
G|12-12-12-12-12-12-12-12-13-13-13-13-13-13-13-13-15-15-15-15-15-15-15-15-15-15-15-15-15-15-15-15-|
D|------------------------------------------------------------------------------------------------|
A|10-10-10-10-10-10-10-10-11-11-11-11-11-11-11-11-13-13-13-13-13-13-13-13-13-13-13-13-13-13-13-13-|
D|------------------------------------------------------------------------------------------------|

Guitar #2 (4th time through chorus chord progression)
  
  Cm              G#                      D#                      x 
e|8-8-8-8-8-8-8-8-11-11-11-11-11-11-11-11-15-15-15-15-15-15-15-15-x-------------------------------|
B|------------------------------------------------------------------------------------------------|
G|5-5-5-5-5-5-5-5-8--8--8--8--8--8--8--8--12-12-12-12-12-12-12-12-x-------------------------------|
D|------------------------------------------------------------------------------------------------|
A|------------------------------------------------------------------------------------------------|
D|------------------------------------------------------------------------------------------------|


[Keyboard Solo] (verse chord progression is played behind it)

e|-----6h8p6--------------------------------6h8p6-------------------------------|
B|-----------8-6-------------8--------------------8-6-------------8-------------|
G|---------------8-10-x-10-x---10-8-------------------8-10-x-10-x---10-8----8---|
D|----------------------------------10-8---------------------------------10-----| x2
A|------------------------------------------------------------------------------|
D|------------------------------------------------------------------------------|


Verse

[Chorus #2]

Guitar #1
   
  Cm                G#                D#                A#
e|---------------------------------------------------------------------------|
B|------------------------------------8--------------------------------------|
G|12----------------8-----------------8-----------------10-------------------|
D|10----------------6-----------------8-----------------8--------------------| x1
A|10----------------6-----------------6-----------------8--------------------|
D|10----------------6-----------------------------------8--------------------|

  Cm                G#                D#                x
e|---------------------------------------------------------------------------|
B|------------------------------------8--------------------------------------|
G|12----------------8-----------------8-----------------x--------------------|
D|10----------------6-----------------8-----------------x--------------------| x1
A|10----------------6-----------------6-----------------x--------------------|
D|10----------------6-----------------------------------x--------------------|


[Chorus #2]

Guitar #2 (1st time through chorus chord progression)
  
  Cm                      G#                      D#                      A#
e|------------------------------------------------------------------------------------------------|
B|------------------------------------------------------------------------------------------------|
G|12-12-12-12-12-12-12-12-13-13-13-13-13-13-13-13-15-15-15-15-15-15-15-15-15-15-15-15-15-15-15-15-|
D|------------------------------------------------------------------------------------------------|
A|10-10-10-10-10-10-10-10-11-11-11-11-11-11-11-11-13-13-13-13-13-13-13-13-13-13-13-13-13-13-13-13-|
D|------------------------------------------------------------------------------------------------|

Guitar #2 (2nd time through chorus chord progression)
  
  Cm              G#                      D#                      x 
e|8-8-8-8-8-8-8-8-11-11-11-11-11-11-11-11-15-15-15-15-15-15-15-15-x-------------------------------|
B|------------------------------------------------------------------------------------------------|
G|5-5-5-5-5-5-5-5-8--8--8--8--8--8--8--8--12-12-12-12-12-12-12-12-x-------------------------------|
D|------------------------------------------------------------------------------------------------|
A|------------------------------------------------------------------------------------------------|
D|------------------------------------------------------------------------------------------------|


[Acoustic Riff]

e|---------------------------------------------------------------------------|
B|---------------------------------------------------------------------------|
G|12-12-12-10-10-8-8-8-8-8-8-8-10-10-10-10-----------------------------------|
D|10-10-10-8--8--6-6-6-8-8-8-8-10-10-10-10-----------------------------------| x4
A|10-10-10-8--8--6-6-6-6-6-6-6-8--8--8--8------------------------------------|
D|10-10-10-8--8--6-6-6-------------------------------------------------------|

"Never stop it's how we ride..."

e|---------------------------------------------------------------------------|
B|---------------------------------------------------------------------------|
G|10-10-10-10-10-10-10-10-10-10-10-10-8-8-8-x--------------------------------|
D|10-10-10-10-10-10-10-10-10-10-10-10-8-8-8-x--------------------------------| x1
A|8--8--8--8--8--8--8--8--8--8--8--8--6-6-6-x--------------------------------|
D|---------------------------------------------------------------------------|

Repeat Chorus #2


[Outro Solo] 

e|-----6h8p6---------------------------------6h8p6-------------------------------|
B|-----------8-6-------------8---------------------8-6-------------8-------------|
G|---------------8-10-x-10-x---10-8--------------------8-10-x-10-x---10-8----(8)-|
D|----------------------------------10-8----------------------------------10-----| x4
A|-------------------------------------------------------------------------------|
D|-------------------------------------------------------------------------------|

Play this chord progression behind the outro solo.

e|---------------------------------------------------------------------------|
B|---------------------------------------------------------------------------|
G|---------------------------------------------------------------------------|
D|-------------------8-8-8---------------------------------------------------| x7
A|10-10-10-8-8-6-6-6-6-6-6-3-3-3-3-3-----------------------------------------|
D|10-10-10-8-8-6-6-6-------3-3-3-3-3-----------------------------------------|


e|---------------------------------------------------------------------------|
B|---------------------------------------------------------------------------|
G|---------------------------------------------------------------------------|
D|---------------------------------------------------------------------------| x1
A|3-3-3-3-3-3-3-3-3-3-3-3-1-1-1-X--------------------------------------------|
D|3-3-3-3-3-3-3-3-3-3-3-3-1-1-1-X--------------------------------------------|



************************************

| x  Dead note
| h  Hammer-on
| p  Pull-off

************************************

            
            
Suggest correction
Creating personal tab
Creating personal tab
You can edit any tab online and save it as your Personal.

You can edit, replace or remove any tab part or add personal notes – all changes will be seen only by you.

Personal tabs can be accessed anytime from any device, even offline.
Learn more »
Give kudos to tab author, rate the tab!
1 2 3 4 5
comments
print report bad tab
1 comment total.
0 reply
billdavid1234 10 Jul 07, 2016 07:33 AM, edited at 06:17 pm

Looks good!

guest
You may want to rate the tab now too:
select rating
Wanna post a correction for this tab? Suggest correction