Oops, an error
Loading. Please wait.

Subir Al Cielo tab

13 views 1 this week
no commentswrite comment
1 2 3 4 5
3 more votes to show rating
add to favorites
×
Save as Personal and add changes to this tab that will be seen only by you. Learn more ›
×
You can save this tab as Personal to edit and correct it or add notes. All changes will be seen only by you. Learn more »
launch autoscroll
font size
0
reset
how to read this tab
guitar tuner
edit
Autoscroll
slow
fast
+/-
esc
set tempo
stop
Intro riff 1 x2 ; riff 2 x1


riff 1
guitarra base

1---------------------------------------
2---------------------------------------
3---------------------------------------
4------0-----0---------0---------0----
5----5-----5---------9---------9-----------
6--3-----3---------7---------7----------

riff 2

1--15--14--10--10---12-------------------------------
2------------------------12--10-12-10--15-12---------
3------------------------------------------------14--
4----------------------------------------------------
5----------------------------------------------------
6----------------------------------------------------

1---------------------------/
2---------------------------/
3-14/17--14/17--------------/
4---------------------------/
5---------------------------/
6---------------------------/

riff 1
Siempre imagine subir al cielo
aunque alguna vez choque duro el suelo
mañana sera otro dia nuevo
mi oportunidad de empezar de cero

G5       E5               B5
      una vez y otra vez
        D5
sigo estando entero
G5     E5          B5
   una vez y otra vez
            D5
levantando vuelo voy...

Riff 2 x2

G5           E5    B5      D5
      quisiera tener un corazon nuevo
G5      E5    B5         D5
   y poder curar los cortes añejos
G5     E5      B5        D5
   aunque aconsejar sea de zorro viejo
G5          E5       B5      D5
  siempre escuchare a mis sentimientos


una vez y otra vez
sigo estando entero
una vez y otra vez
levantando vuelo voy...

una vez y otra vez
sigo estando entero
una vez y otra vez
levantando vuelo voy...

solo                                   x2

1----12-----12-------12--12----14----------
2--------12------12----------12-----12-----
3------------------------------------------
4------------------------------------------
5------------------------------------------
6------------------------------------------


1----------------------------7--------------------
2--8--7--8--10-----8--7--8------8--7--8--10--8--7-
3-------------------------------------------------
4-------------------------------------------------
5-------------------------------------------------
6-------------------------------------------------

1------------------------------------
2--8--7--8--10--8--7-----------------
3---------------------7--------------
4------------------------------------
5------------------------------------
6------------------------------------

1------------------------------------
2------------------------------------
3---7--9---^9--7*9-------------------
4----------------------9---7---9-----
5------------------------------------
6------------------------------------

una vez y otra vez
sigo estando entero
una vez y otra vez
levantando vuelo voy.

una vez y otra vez
sigo estando entero
una vez y otra vez
levantando vuelo voy.

Riff 1

levantando vuelo voy!


/= arrastre ; ^= slide *= apoyar el dedo sin tocar la cuerda

Espero q les suene bien!! a mi me parecio
q esta bastante acertada, pero algo siempre falla je
asi q escucho criticas!
saludos y aguante charlie 3 and brown!

            
            
Suggest correction
Creating personal tab
Creating personal tab
You can edit any tab online and save it as your Personal.

You can edit, replace or remove any tab part or add personal notes – all changes will be seen only by you.

Personal tabs can be accessed anytime from any device, even offline.
Learn more »
Give kudos to tab author, rate the tab!
1 2 3 4 5
comments
print report bad tab
guest
Wanna post a correction for this tab? Suggest correction