Oops, an error
Loading. Please wait.

Will You Visit Me On Sundays bass

10 views 1 this week
no commentswrite comment
1 2 3 4 5
3 more votes to show rating
add to favorites
×
Save as Personal and add changes to this tab that will be seen only by you. Learn more ›
×
You can save this tab as Personal to edit and correct it or add notes. All changes will be seen only by you. Learn more »
launch autoscroll
font size
0
reset
guitar tuner
edit
Autoscroll
slow
fast
+/-
esc
set tempo
stop
Author
Difficulty
Tabbed by: 6METAL6BASSIST6
E-mail: petergriffinav@gmail.com

Tuning: EADG

G|----------------------------------------------------------------|
D|----------------6-------------------------------6---------------| x2
A|4-------------------------------4-------------------------------|
E|----------------------------------------------------------------|

0:10

G|----------------------------------------------------------------|
D|----------------6-----------------------------------------------|
A|4-------------------------------4---------------4---------------|
E|----------------------------------------------------------------|

G|----------------------------------------------------------------|
D|4---------------4-------------------------------6---------------|
A|--------------------------------4-------------------------------|
E|------------------------------------------------------------4---|

G|----------------------------------------------------------------|
D|--------------------------------4---------------4---------------|
A|4---------------4-----------------------------------------------|
E|----------------------------------------------------------------|

G|----------------------------------------------------------------|
D|----------------------------------------------------------------|
A|4---------------4---------------------------------------3-------|
E|--------------------------------4-----------4---6---------------|

0:29

G|----------------------------------------------------------------|
D|----------------------------------------------------------------|
A|4-------------------------------4---------------4---------------|
E|----------------4-----------------------------------------------|

G|----------------------------------------------------------------|
D|4---------------4---------------------------------------3-------|
A|--------------------------------4---------------6---------------|
E|----------------------------------------------------------------|

G|----------------------------------------------------------------|
D|4---------------4-----------5---6-------------------------------|
A|----------------------------------------------------------------|
E|------------------------------------------------4---------------|

G|----------------------------------------------------------------|
D|----------------6-----------------------------------------------|
A|4-------------------------------4-----------------------3-------|
E|----------------------------------------4-------6---------------|

0:47

G|----------------------------------------------------------------|
D|----------------------------------------------------------------|
A|4-----------4---4---------------------------------------1---3---|
E|--------------------------------2-----------2---2---4-----------|

G|----------------------------------------------------------------|
D|--------------------------------------------6-/-8---6-----------|
A|4-----------4-------------------4-----------------------8---6---|
E|----------------4-----------------------------------------------|

G|----------------------------------------------------------------|
D|--------------------------------4-----------4---4---------------|
A|4-----------4---4-----------------------------------------------|
E|----------------------------------------------------------------|

G|----------------------------------------------------------------|
D|--------------------------------6-----------4---------------6---|
A|4-----------4---4-------------------------------6---3-----------|
E|--------------------------------------------------------4-------|

1:05

G|----------------------------------------------------------------|
D|--------------------------------------------------------3-------|
A|4-----------4-------------------4-----------4---6---------------|
E|----------------4-----------------------------------------------|

G|----------------------------------------------------------------|
D|4-----------4---4-----------6---------------------------3-------|
A|--------------------------------4-----------4---6---------------|
E|----------------------------------------------------------------|

G|----------------------------------------------------------------|
D|4-----------4---4-----------6-----------------------------------|
A|--------------------------------4-----------4---4-----------6---|
E|----------------------------------------------------------------|

G|--------------------------------|
D|------------5---6-----4---------|
A|------------------------6-------|
E|4---------------------------4---|

G|----------------------------------------------------------------|
D|----------------6---------------------------6-------6-----------|
A|4-------------------------------4-----------------------4-------|
E|----------------------------------------------------------------|

G|----------------------------------------------------------------|
D|----------------------------------------------------------------|
A|5-------------------------------5-----------------------4-------|
E|----------------5-----------------------5-------7---------------|

1:30

G|----------------------------------------------------------------|
D|--------------------------------------------------------4-------|
A|5-------------------------------5---------------7---------------|
E|----------------5-----------------------------------------------|

G|----------------------------------------------------------------|
D|5---------------5-------------------------------7---------------|
A|--------------------------------5-------------------------------|
E|--------------------------------------------------------5---7---|

G|----------------------------------------------------------------|
D|--------------------------------5---------------5---------------|
A|5---------------5-----------------------------------------------|
E|----------------------------------------------------------------|

G|----------------------------------------------------------------|
D|----------------------------------------------------------------|
A|5---------------5---------------------------------------4-------|
E|--------------------------------5-----------5---7---------------|

1:48

G|----------------------------------------------------------------|
D|----------------------------------------------------------------|
A|5-------------------------------5-------------------------------|
E|----------------5-------------------------------0-------2-------|

G|----------------------------------------------------------------|
D|--------------------------------------------------------4-------|
A|--------------------------------5---------------7---------------|
E|3---------------3-----------------------------------------------|

G|----------------------------------------------------------------|
D|5---------------5-----------6---7-------------------------------|
A|----------------------------------------------------------------|
E|------------------------------------------------5---------------|

G|----------------------------------------------------------------|
D|----------------------------------------------------------------|
A|5---------------------------5-------5-------------------4-------|
E|----------------5-----------------------5-------7---------------|

2:06

G|----------------------------------------------------------------|
D|----------------------------------------------------------------|
A|5-----------5---5-------------------------------------------4---|
E|----------------------------2---3-----------3---3---------------|

G|----------------------------------------------------------------|
D|----------------------------------------------/-9---7-----------|
A|5-----------5-------------------5-----------5-----------9---7---|
E|----------------5-----------------------------------------------|

G|----------------------------------------------------------------|
D|----------------------------4---5-----------5---5-----------7---|
A|5-----------5---5-----------------------------------------------|
E|----------------------------------------------------------------|

G|----------------------------------------------------------------|
D|----------------------------6---7-------------------------------|
A|5-----------5---5-------------------7-------------------4-------|
E|----------------------------------------5---7-------7-----------|

2:25

G|----------------------------------------------------------------|
D|--------------------------------------------------------4-------|
A|5-----------5-------------------5-----------5---7---------------|
E|----------------5-----------------------------------------------|

G|----------------------------------------------------------------|
D|5-----------5---5-----------7---------------------------4-------|
A|--------------------------------5-----------5---7---------------|
E|----------------------------------------------------------------|

G|----------------------------------------------------------------|
D|5-----------5---5-------5---------------------------------------|
A|--------------------------------5-----------5---5-------5-------|
E|----------------------------------------------------------------|

G|----------------------------------------------------------------|
D|------------------------5h7-----------------------/-7---5---4---|
A|--------------------------------5-------------------------------|
E|5-----------5---5-------------------------------5---------------|

G|--------------------------------------------------------------------------|
D|----------------------------7---------------------/-7-----5---/-4---------|
A|5-----------5-------------------5-----------5-------------------------5---|
E|----------------5---------------------------------------------------------|

            
            
Suggest correction
Creating personal tab
Creating personal tab
You can edit any tab online and save it as your Personal.

You can edit, replace or remove any tab part or add personal notes – all changes will be seen only by you.

Personal tabs can be accessed anytime from any device, even offline.
Learn more »
Give kudos to tab author, rate the tab!
1 2 3 4 5
comments
print report bad tab
guest
You may want to rate the tab now too:
select rating
Wanna post a correction for this tab? Suggest correction