Oops, an error
Loading. Please wait.

Vakero Rockanrolero tab

129 views 1 this week
no commentswrite comment
1 2 3 4 5
3 more votes to show rating
add to favorites
×
Save as Personal and add changes to this tab that will be seen only by you. Learn more ›
×
You can save this tab as Personal to edit and correct it or add notes. All changes will be seen only by you. Learn more »
launch autoscroll
font size
0
reset
how to read this tab
guitar tuner
edit
Autoscroll
slow
fast
+/-
esc
set tempo
stop
INTRO (TAMBIEN SE TOCA EN MEDIO DE LA ROLA):

Arreglo de acordeóforo  a guitáfara, en español de acordeón a lira:

E-------------------------------------------
A-------------------------------------------
D-------------------------------------------
G----------------------------------3-1------
B--2-2-2-0-4-2-----2-2-2-0-4-2-2-2-----2---- 
E-------------------------------------------

Después:


E-------------------------------------------
A-------------------------------------------
D------------------------------------6-4---
G--4-4-4-1-6-4-----4-4-4-1-6-4-4-4-2-----4             
B-------------------------------------------
E-------------------------------------------

A
 Dices que eres la bandota
                        E
 que eres bien rocanrolero
D         E                   A
 y se te nota con tremenda matota

 
 Todo lleno de tatuajes
                     E
 luego hasta traes aretes
D          E             A 
 y tu camiseta de metallica

 
 Quien te viera pensaría
                           E
 que eres una estrella de rock
D      E                  A
 pero nadie imaginaba la neta

 REQUINTO 2:

E-------------------------------------
A-------------------------------------
D-------------------------------------
G-----------------------------4-----4-
B-3-4-5-----5-----5-----5-5-2---5-2---
E-------5-2---5-2---5-2---------------


E--------------------------
A--------------------------
D--------------------------
G-------------2------------
B-3-5-5-3-2-0--------------
E--------------------------

El requinto anterior se toca  dos veces.

A
 Te fuiste a ver a los Tigres
                     E
 a Límite y a los Tucanes
D                  E                 A
 vestido de cuero negro para apantallar

 

 Dabas el taconazo
                   E
 con el puro nixtamal
D                  E               A 
 bailabas a sombrerazos con el Piporro

D                     A
 Siempre das el Jacintazo
D                     A
 siempre das el Piporrazo
E         D           A
 eres la pura milpa real

D                          A
 Eres el Vaquero de la Malboro
D                   A
 el Vaquero Rocanrolero
E       D                 A 
 Oye Jacinto Jacinto Metalero.


SE REPITE REQUINTO QUE SE TOCA EN LA INTRODUCCIÓN.

 Siempre..............

NOTA: Si no te gustan los requintos puedes transportarlos, 
ya sea en el mismo tono o en otro,
el chiste es que se oiga afinado y de poca.


     ..PARA LOS DE MI BARRIO...
                
                              Buenos Blues :-)

            
            
Suggest correction
Creating personal tab
Creating personal tab
You can edit any tab online and save it as your Personal.

You can edit, replace or remove any tab part or add personal notes – all changes will be seen only by you.

Personal tabs can be accessed anytime from any device, even offline.
Learn more »
Give kudos to tab author, rate the tab!
1 2 3 4 5
comments
print report bad tab
guest
Wanna post a correction for this tab? Suggest correction