Oops, an error
Loading. Please wait.

Attention intro tab

version 2
version 2

Intro

  • Based on Studio Recording (https://www.youtube.com/watch?v=4Dx1pDegXLs).
  • This version makes it easier for beginners so ther... Show more

Whole song

Interactive

59,569 views 1,935 this week
9 commentsread comments
1 2 3 4 5
x 239
add to favorites
×
Save as Personal and add changes to this tab that will be seen only by you. Learn more ›
×
You can save this tab as Personal to edit and correct it or add notes. All changes will be seen only by you. Learn more »
launch autoscroll
font size
0
reset
how to read this tab
guitar tuner
edit
Autoscroll
slow
fast
+/-
esc
set tempo
stop
Capo 1st fret
Standard tuning
https://www.youtube.com/watch?v=nfs8NYg7yQM
video lesson: https://www.youtube.com/watch?v=Hi61x5wMIPc
chords and riff played throughout the entire song

    Dm    C    Am7    Bb
e|--1--|--0--|--0--|-----|
B|--3--|--1--|--1--|--3--|
G|--2--|--0--|--0--|--3--|
D|--0--|--2--|--2--|--3--|
A|-----|--3--|--0--|--1--|
E|-----|-----|-----|-----|

[Intro]
   Dm                C                 Am7               Bb
e|---------1-0-----|---------0-------|---------0-------|-----------------|
B|-----3-------3---|-----1-3---------|-----1-----3-1---|-------1-3-------|
G|---2---2-------2-|---0-------------|---0---0-------0-|-----3-----------|
D|-0---------------|-----------------|-----------------|---3-------------|
A|-----------------|-3---------------|-0---------------|-1-----------3-4-|
E|-----------------|-----------------|-----------------|-----------------|
   P.M. throughout

            
            
Suggest correction
Creating personal tab
Creating personal tab
You can edit any tab online and save it as your Personal.

You can edit, replace or remove any tab part or add personal notes – all changes will be seen only by you.

Personal tabs can be accessed anytime from any device, even offline.
Learn more »
comments
print report bad tab
9 comments total. Showing first comments. show 1 bad comment
+16 reply
godismean1029 37 May 04, 2017 02:17 PM

Sounds great good job!

+20 reply
Cody M. 31 Jun 20, 2017 03:29 PM

because it is easier for new players to play

guest
You may want to rate the tab now too:
select rating
Wanna post a correction for this tab? Suggest correction