Oops, an error
Loading. Please wait.

Para Que Me Haces Llorar tab

82 views 1 this week
no commentswrite comment
1 2 3 4 5
3 more votes to show rating
add to favorites
×
Save as Personal and add changes to this tab that will be seen only by you. Learn more ›
×
You can save this tab as Personal to edit and correct it or add notes. All changes will be seen only by you. Learn more »
launch autoscroll
font size
0
reset
how to read this tab
guitar tuner
edit
Autoscroll
slow
fast
+/-
esc
set tempo
stop
Aquí les pongo los acordes 100% correctos de esta buena cancion

Intro:

e-----5---------5-------5-4-5------5--------5-4-5------5--------
b-------5---------5-----------7-------7-----------7-------7-----
g----------6--------6-----------6--------6----------7--------7--
d---------------------------------------------------------------
a---------------------------------------------------------------
e---------------------------------------------------------------


e-----5-4--7------7--------7----4-------------------------------
b------------9------9-------------------------------------------
g--------------9-------9----------------------------------------
d---------------------------------------------------------------
a---------------------------------------------------------------
e---------------------------------------------------------------

      Para que          me haces llorar         que no ves
e-----5---------5-------5-4-5------5--------5-4-5------5--------
b-------5---------5-----------7-------7-----------7-------7-----
g----------6--------6-----------6--------6----------7--------7--
d---------------------------------------------------------------
a---------------------------------------------------------------
e---------------------------------------------------------------

       que mas no puedo???
e-----5-4--7------7------------7--------------------------------
b------------9------9----------9--------------------------------
g--------------9------9--------9--------------------------------
d---------------------------------------------------------------
a---------------------------------------------------------------
e---------------------------------------------------------

Aquí entra la batería y luego tocas esto?
A   F#m    D     E


      A               F#m         D               E
Para que me haces llorar que no vez que mas no puedo
      A               F#m         D               E
Para que me haces sufriiir que no vez que mas no puedo


Pre Coro:
       A                    F#m       D     E
Yo nunca, nunca habia llorado y menos de doloooor,
       A                   F#m      D         E
ni nunca, nunca habia tomado y menos por un amor.....

CORO
                    A               F#m
Por q me haces llorar y t burlas de mi si sabes
         D                  E
tu muy bien que yo no se sufriiiiir....
                 A                  F#m
Me voy a emborrachar al no saber de ti
                D                   E
q sepan q hoy tome q hoy me emborraceeeee
     A   F#m    D     E  x2
por ti...

      A               F#m         D               E
Para que me haces llorar que no vez que mas no puedo
      A               F#m         D               E
Para que me haces sufriiir que no vez que mas no puedo


Pre Coro:
       A                    F#m       D     E
Yo nunca, nunca habia llorado y menos de doloooor,
       A                   F#m      D         E
ni nunca, nunca habia tomado y menos por un amor.....

CORO
                    A               F#m
Por q me haces llorar y t burlas de mi si sabes
         D                  E
tu muy bien que yo no se sufriiiiir....
                 A                  F#m
Me voy a emborrachar al no saber de ti
                D                   E
q sepan q hoy tome q hoy me emborraceeeee
     A   F#m    D     E
por ti...


   A                  F#m
//Por un amor imposible si por tu amor imposible
D                    E
Por un amor imposible estoy borracho otra veeez // 3 VECES

CORO
                    A               F#m
Por q me haces llorar y t burlas de mi si sabes
         D                  E
tu muy bien que yo no se sufriiiiir....
                 A                  F#m
Me voy a emborrachar al no saber de ti
                 D                  E
q sepan q hoy tome q hoy me emborracheeeee

                    A               F#m
Por q me haces llorar y t burlas de mi si sabes
         D                  E
tu muy bien que yo no se sufriiiiir....
                 A                  F#m
Me voy a emborrachar al no saber de ti
                 D                  E
q sepan q hoy tome q hoy me emborracheeeee
     A
por ti...
                         F#m                D
e-----5---------5-------5-4-5------5--------5-4-5------5--------
b-------5---------5-----------7-------7-----------7-------7-----
g----------6--------6-----------6--------6----------7--------7--
d---------------------------------------------------------------
a---------------------------------------------------------------
e---------------------------------------------------------------

           E                   A
e-----5-4--7---4---------------5--------------------------------
b------------------5-----------5--------------------------------
g-----------------------7------6--------------------------------
d------------------------------7--------------------------------
a------------------------------7--------------------------------
e------------------------------5--------------------------------

Listo... Toquenla con la cancion para q le cojan los cambios de ritmo.
Espero les sirva...
ARRIBA LA MÚSIK!!

            
            
Suggest correction
Creating personal tab
Creating personal tab
You can edit any tab online and save it as your Personal.

You can edit, replace or remove any tab part or add personal notes – all changes will be seen only by you.

Personal tabs can be accessed anytime from any device, even offline.
Learn more »
Give kudos to tab author, rate the tab!
1 2 3 4 5
comments
print report bad tab
guest
Wanna post a correction for this tab? Suggest correction