Oops, an error
Loading. Please wait.

Si No Te Hubieras Ido tab

18 views 1 this week
no commentswrite comment
1 2 3 4 5
3 more votes to show rating
add to favorites
×
Save as Personal and add changes to this tab that will be seen only by you. Learn more ›
×
You can save this tab as Personal to edit and correct it or add notes. All changes will be seen only by you. Learn more »
launch autoscroll
font size
0
reset
how to read this tab
guitar tuner
edit
Autoscroll
slow
fast
+/-
esc
set tempo
stop
Esta canción quiero dedicar al amor de mi vida
vanne espero que algún día me aprendas a valorar
y me quieras por lo q soy y que  me vuelvas a hablar
te amo vanne va por ti Carlos Jara esta corrección
esta a madre y la estoy tocando con mi banda

ESTO ESTA 100% CORRECTO
INTRO
E/----------------------II-------------------II
B/---------------1------II----1-0------------II
G/--------0--2-----2----II---------2-0-------II
D/----2-----------------II--------------3----II
A/----------------------II-------------------II
E/----------------------II-------------------II
                                              x2

E/----------------------II --------------------II
B/----------------------II --------1-----------II
G/----------------------II --------2-----------II
D/-----33333333---------II --------2-----------II
A/----------------------II---------------------II
E/----------------------II --------------------II

Am                F                C
TE EXTRAÑO MAS Q NUNCA Y NO SE Q HACER
Am               F            C
DESPIERTO Y T RECUERDO AL AMANECER
G5                              C5
ME ESPERA OTRO DIA DE VIVIR SIN TI
E7             Am     Am  G    F
EL ESPEJO NO MIENTE
               G                       C
ME VEO TAN DIFERENTE A CUANDO ESTABAS TU


Am               F                 C
LA GENTE PASA Y PASA SIEMPRE TAN IGUAL
Am              F              C
EL RITMO DE LA VIDA ME PARECE MAL
G5                                  C5  E7 Am Am G F
SI QUE ERA DIFERENTE CUANDO ESTABAS TU
               G                       C
SI QUE ERA DIFERENTE A CUANDO ESTABAS TU

G                                     C
NO HAY NADA MAS DIFICIL QUE VIVIR SIN TI

G                                  C
SUFRIENDO EN LA ESPERA DE VERTE LLEGAR
G                                  C
EL FRIO DE MI CUERPO PREGUNTA POR TI
E7              Am    Am  G   F
Y NO SE DONDE ESTAS
                   G               C
SI NO TE HUBIERAS IDO SERIA TAN FELIZ

INTRO

E/----------------------II-------------------II
B/---------------1------II----1-0------------II
G/--------0--2-----2----II---------2-0-------II
D/----2-----------------II--------------3----II
A/----------------------II-------------------II
E/----------------------II-------------------II
                                                             x2

E/----------------------II---------------------II
B/----------------------II---------1-----------II
G/----------------------II---------2-----------II
D/-----33333333---------II---------2-----------II
A/----------------------II---------------------II
E/----------------------II---------------------II


Am                 F                C
TE EXTRAÑO MAS Q NUNCA Y NO SE Q HACER
Am               F             C
DESPIERTO Y T RECUERDO AL AMANECER
G5                             C5
ME ESPERA OTRO DIA DE VIVIR SIN TI
E7              Am      Am G  F
EL ESPEJO NO MIENTE
               G                       C
ME VEO TAN DIFERENTE A CUANDO ESTABAS TU


G                                      C
NO HAY NADA MAS DIFICIL QUE VIVIR SIN TI
G                                   C
SUFRIENDO EN LA ESPERA DE VERTE LLEGAR
G                                 C
EL FRIO DE MI CUERPO PREGUNTA POR TI
E7              Am    Am G  F
Y NO SE DONDE ESTAS
             G                      C
SI NO TE HUBIERAS IDO SERIA TAN FELIZ
F            G                      C
SI NO TE HUBIERAS IDO SERIA TAN FELIZ
F            G                      C
SI NO TE HUBIERAS IDO SERIA TAN FELIZ
F            G                      C
SI NO TE HUBIERAS IDO SERIA TAN FELIZ

listo gracias les sonara muy bien
echelen oido a los tiempos por ultimo
un saludo para mis panas del A.C.S
fer,manolo,alfo,vanne te amo

            
            
Suggest correction
Creating personal tab
Creating personal tab
You can edit any tab online and save it as your Personal.

You can edit, replace or remove any tab part or add personal notes – all changes will be seen only by you.

Personal tabs can be accessed anytime from any device, even offline.
Learn more »
Give kudos to tab author, rate the tab!
1 2 3 4 5
comments
print report bad tab
guest
Wanna post a correction for this tab? Suggest correction