Oops, an error
Loading. Please wait.

Voy En El Metro tab

version 3
version 3

Whole song

20 views 1 this week
no commentswrite comment
1 2 3 4 5
3 more votes to show rating
add to favorites
×
Save as Personal and add changes to this tab that will be seen only by you. Learn more ›
×
You can save this tab as Personal to edit and correct it or add notes. All changes will be seen only by you. Learn more »
launch autoscroll
font size
0
reset
how to read this tab
guitar tuner
edit
Autoscroll
slow
fast
+/-
esc
set tempo
stop
Voy en el Metro
(Salvador Flores Rivera)

  A                           A                         E
e|0-0-0-0-0-0-0-0-2-4-5-4-2-0-0-0-0-0-0-0-0-2-4-5-4-2-0-0-0-0-0-0-0------
B|2-2-2-2-2-2-2---------------2-2-2-2-2-2---------------1-1-1-1-1-1------
G|2-2-2-2-2-2-2---------------2-2-2-2-2-2---------------2-2-2-2-2-2------
D|2---------2-2---------------2-2-2-2-2-2---------------2-2-2-2-2-2------
A|-----------------------------------------------------------------------
E|-----------------------------------------------------------------------
                 Gracias al esfuerzo, de    Fue posible la construccion
                 Pueblo y gobierno aunado        de un sistema de
                                               Transporte colectivo


                       E                               A
e |0-2-4-5-4-5-4-5-4-0-0-0-0-0-0-0-0-2-4-5-4-5-4-5-4-7-0-0-0-0-0-0-------
B |--------------------1-1-1-1-1-1---------------------2-2-2-2-2-2-------
G |--------------------2-2-2-2-2-2--- -----------------2-2-2-2-2-2-------
A |--------------------2-2-2-2-2-2---------------------2-2-2-2-2---------
E |----------------------------------------------------------------------
   Que viene a dar a la ciudad            colocarla entre las
       Un nuevo aspecto y así              mejores del mundo
                            A
e | -0-2-4-5-4-2-0----------
B |-------------------------
G |-------------------------
D |-------------------------
A |---------------------------
E |----------------0-2-4-5-4-0
En anteriores sexenios, hemos visto, no, no, no???????.pues si, no, pus
Fig 1.                                           A
e |-------------------------------------------------
B |-------------------------------------------------
G |-------------------------------------------------
D |-------------------------------------------------
A |---5-4-2---------------5-4-2---------------------
E |-----------0-2-4-5-5----------0-4-5------------5-
A
Adios mi linda Tacuba
                   E
Bella tierra tan risueña
       E7
Ya me voy de tu legaria
                  A
Tu marina, tu pensil
       F#
Ya me voy me lleva el metro
                         Bm
Por ?tres pesos? a Taxqueña
          G#7
Si en dos horas no regreso
                    C#7
Guardame una tumba aquí

C#7, C7, B7, B7, B7, C7, C#7
A
Al bajar a los andenes
                    E
Escuche esta cantaleta
         E7
Al mirar llegar los trenes
        G#7             C#7
No se aviente para entrar
           F#
Si en diecisiete segundos
                     Bm
No ha podido?ni se meta
                  A
Ni se baje la banqueta
         E        A
Que se puede rostizar

           A            E
Voy en el metro? ¡Que grandote,

Rapidote y segurote
         E7
¡Que deferencia del camion
         A
De mi compadre ?Jilemón?

Que va al panteon:

          F#           Bm
Ahí no admiten guajolotes,
          E
ni ?tamarindos? zopilotes,
     Fig:1
ni huacales con camotes,
                  A
ni costales con carbón


A
¡Que se quite de la puerta!
                       E
Y luego luego que me quito
       E7
Y siguio la señorita:
                     A
¡Que se arrime más pa´ aca
         F#
¡Que no fume..Cual?  Ni fumo,
                        Bm
Ya me trae de su puerquito
         G#
Yo por más que me la busco
                        C#7
No la ?jallo? dónde esta

C#7, C7, B7, B7, B7, C7, C#7

 A
Adios, mi linda Tacuba
                      E
Ya pasamos por Cuitlahuac
     E7
Ya pasamos por Popotla
              A
Y el ?Colegio Melitar?

F#
Ya me estoy arrepintiendo
                       Bm
No haber hecho de ?las aguas?
                     A
Si me sigue esta nostalgia
       E           A
Yo me bajo en la normal.

Voy en el metro?
¡Que grandote?etc.


Esta Transcripción se la dedico con mucho cariño:
A mi esposa Alejandrina y a mi hijo Carlos
Asi como al Bebe que ya viene en camino?Los Amo.

            
            
Suggest correction
Creating personal tab
Creating personal tab
You can edit any tab online and save it as your Personal.

You can edit, replace or remove any tab part or add personal notes – all changes will be seen only by you.

Personal tabs can be accessed anytime from any device, even offline.
Learn more »
Give kudos to tab author, rate the tab!
1 2 3 4 5
comments
print report bad tab
guest
Wanna post a correction for this tab? Suggest correction