Oops, an error
Loading. Please wait.

Baby Loves To Rock tab

61 views 3 this week
no commentswrite comment
1 2 3 4 5
3 more votes to show rating
add to favorites
×
Save as Personal and add changes to this tab that will be seen only by you. Learn more ›
×
You can save this tab as Personal to edit and correct it or add notes. All changes will be seen only by you. Learn more »
launch autoscroll
font size
0
reset
how to read this tab
guitar tuner
edit
Autoscroll
slow
fast
+/-
esc
set tempo
stop
[Verse]
                                      C# D
More and more I been thinkin' 'bout love

e|-1/2--2-2---1/2--2-2-------------2-----------------------------------------|
B|-2/3--3-3---2/3--3-3---2/3-------3-----------------------------------------|
G|-1/2--2-2---1/2--2-2---1/2-------2-----------------------------------------|
D|-----------------------0-0--3p0--0-----------------------------------------|
A|---------------------------------------------------------------------------|
E|---------------------------------------------------------------------------|


                                C# D
Love ain't all I been thinkin' of

e|-1/2--2-2---1/2--2-2-------------2-----------------------------------------|
B|-2/3--3-3---2/3--3-3---2/3-------3-----------------------------------------|
G|-1/2--2-2---1/2--2-2---1/2-------2-----------------------------------------|
D|-----------------------0-0--3p0--0-----------------------------------------|
A|---------------------------------------------------------------------------|
E|---------------------------------------------------------------------------|
                                    G# A
Some people do and some people don't

e|---------------------------------------------------------------------------|
B|---------------------------------------------------------------------------|
G|---------------------------------------------------------------------------|
D|---------------------------------------------------------------------------|
A|-6/7--7-7---6/7--7-7---6/7--7\6/7------------------------------------------|
E|-4/5--5-5---4/5--5-5---4/5--5\4/5------------------------------------------|

                                  C# D
Some people will and say they won't


[Chorus]

        G     D      A
But my baby loves to rock
        G     D      A
And my baby loves to roll
     G     D      A
My baby loves to all night long

   G  D  A             G  D  A             G  D  A        G  D
e|-3--2----------------3--2----------------3--2-----------3--2---------------|
B|-3--3----------------3--3----------------3--3-----------3--3---------------|
G|-0--2--2--2-----2----0--2--2--2-----2----0--2--2-2-2----0--2---------------|
D|-0--0--2--2--4--2----0--0--2--2--4--2----0--0--2-2-2----0--0---------------|
A|-0--0--0--0--0--0----0--0--0--0--0--0----0--0--0-0-0----0------------------|
E|-3-------------------3-------------------3--------------3------------------|


    G      D     E5  Eb5 C#5 B5 A5 G#5 F#5
My baby loves to rock
                 E5  Eb5 C#5 B5 A5 G#5 F#5
She loves to rock
                 E5  Eb5 C#5 B5 A5 G#5 F#5  
She loves to rock

e|---------------------------------------------------------------------------|
B|---------------------------------------------------------------------------|
G|---------------------------------------------------------------------------|
D|-9--8--6--4------------9--8--6--4------------------------------------------|
A|-7--6--4--2--7--6--4---7--6--4--2--7--6--4---------------------------------|
E|-------------5--4--2---------------5--4--2---------------------------------|



[Verse]
                                      C# D
More and more I'm thinkin' 'bout s-s-sex

e|-1/2--2-2---1/2--2-2-------------2-----------------------------------------|
B|-2/3--3-3---2/3--3-3---2/3-------3-----------------------------------------|
G|-1/2--2-2---1/2--2-2---1/2-------2-----------------------------------------|
D|-----------------------0-0--3p0--0-----------------------------------------|
A|---------------------------------------------------------------------------|
E|---------------------------------------------------------------------------|
                                 C# D
The more I think the better it gets

e|-1/2--2-2---1/2--2-2-------------2-----------------------------------------|
B|-2/3--3-3---2/3--3-3---2/3-------3-----------------------------------------|
G|-1/2--2-2---1/2--2-2---1/2-------2-----------------------------------------|
D|-----------------------0-0--3p0--0-----------------------------------------|
A|---------------------------------------------------------------------------|
E|---------------------------------------------------------------------------|
                                      G# A
More and more I'm thinkin' bout s-s-sex

e|---------------------------------------------------------------------------|
B|---------------------------------------------------------------------------|
G|---------------------------------------------------------------------------|
D|---------------------------------------------------------------------------|
A|-6/7--7-7---6/7--7-7---6/7--7\6/7------------------------------------------|
E|-4/5--5-5---4/5--5-5---4/5--5\4/5------------------------------------------|

                                C# D
The more I think the worse it gets

e|-1/2--2-2---1/2--2-2-------------2-----------------------------------------|
B|-2/3--3-3---2/3--3-3---2/3-------3-----------------------------------------|
G|-1/2--2-2---1/2--2-2---1/2-------2-----------------------------------------|
D|-----------------------0-0--3p0--0-----------------------------------------|
A|---------------------------------------------------------------------------|
E|---------------------------------------------------------------------------|


[Chorus]


        G     D      A
But my baby loves to rock
        G     D      A
And my baby loves to roll
     G     D      A
My baby loves to all night long

   G  D  A             G  D  A             G  D  A        G  D
e|-3--2----------------3--2----------------3--2-----------3--2---------------|
B|-3--3----------------3--3----------------3--3-----------3--3---------------|
G|-0--2--2--2-----2----0--2--2--2-----2----0--2--2-2-2----0--2---------------|
D|-0--0--2--2--4--2----0--0--2--2--4--2----0--0--2-2-2----0--0---------------|
A|-0--0--0--0--0--0----0--0--0--0--0--0----0--0--0-0-0----0------------------|
E|-3-------------------3-------------------3--------------3------------------|


    G      D     E5  Eb5 C#5 B5 A5 G#5 F#5
My baby loves to rock

                 E5  Eb5 C#5 B5 A5 G#5 F#5
She loves to rock
                 E5  Eb5 C#5 B5 A5 G#5 F#5  
She loves to rock

e|---------------------------------------------------------------------------|
B|---------------------------------------------------------------------------|
G|---------------------------------------------------------------------------|
D|-9--8--6--4------------9--8--6--4------------------------------------------|
A|-7--6--4--2--7--6--4---7--6--4--2--7--6--4---------------------------------|
E|-------------5--4--2---------------5--4--2---------------------------------|

                 E5  Eb5 C#5 B5 A5 G#5 F#5
She loves to rock
                 E5  Eb5 C#5 B5 A5 G#5 F#5
She loves to rock
                 E5  Eb5 C#5 B5 A5 G#5 F#5
She loves to rock

[Bridge]

D       Dsus   D        Dsus D
In the morning, in the evening
A       Asus   A        Asus A
In the summer, in the winter
G
In my car, in the night
D        Dsus D  Dsus     D
In an airplane, not in Russia!
     E5  Eb5 C#5 B5 A5 G#5 F#5
Rock!

[Chorus]

                 E5  Eb5 C#5 B5 A5 G#5 F#5
She loves to rock
                 E5  Eb5 C#5 B5 A5 G#5 F#5
She loves to rock
                 E5  Eb5 C#5 B5 A5 G#5 F#5
She loves to rock
                                      C# D
More and more I been thinkin' 'bout love

e|-1/2--2-2---1/2--2-2-------------2-----------------------------------------|
B|-2/3--3-3---2/3--3-3---2/3-------3-----------------------------------------|
G|-1/2--2-2---1/2--2-2---1/2-------2-----------------------------------------|
D|-----------------------0-0--3p0--0-----------------------------------------|
A|---------------------------------------------------------------------------|
E|---------------------------------------------------------------------------|
                               C# D 
Love ain't all I been thinkin' of

e|-1/2--2-2---1/2--2-2---1/2---2--2------------------------------------------|
B|-2/3--3-3---2/3--3-3---2/3---3--3------------------------------------------|
G|-1/2--2-2---1/2--2-2---1/2---2--2------------------------------------------|
D|---------------------------------------------------------------------------|
A|---------------------------------------------------------------------------|
E|---------------------------------------------------------------------------|

D






            
            
Suggest correction
Creating personal tab
Creating personal tab
You can edit any tab online and save it as your Personal.

You can edit, replace or remove any tab part or add personal notes – all changes will be seen only by you.

Personal tabs can be accessed anytime from any device, even offline.
Learn more »
Give kudos to tab author, rate the tab!
1 2 3 4 5
comments
print report bad tab
guest
You may want to rate the tab now too:
select rating
Wanna post a correction for this tab? Suggest correction