Oops, an error
Loading. Please wait.

Hard To Tell tab

49 views 1 this week
no commentswrite comment
1 2 3 4 5
3 more votes to show rating
add to favorites
×
Save as Personal and add changes to this tab that will be seen only by you. Learn more ›
×
You can save this tab as Personal to edit and correct it or add notes. All changes will be seen only by you. Learn more »
launch autoscroll
font size
0
reset
how to read this tab
guitar tuner
edit
Autoscroll
slow
fast
+/-
esc
set tempo
stop
[Intro]

Gadd2 G/D Gsus4add2 Csus2/D G5/D 
e|---------------------------------------------------------------------------|
B|-0-0--1--1-0--1--3--1--0---------------------------------------------------|
G|-0-0--0--0-0--0--0--0--0---------------------------------------------------|
D|-0-0--0--0-0--0--0--0--0---------------------------------------------------|
A|-0----0--0-----------------------------------------------------------------|
E|-3----3--3-----------------------------------------------------------------|

e|---------------------------------------------------------------------------|
B|-12-12h13p12---------12h13p12-------------------12h13p12-------------------|
G|-------------12-10v-----------12-10-10/12/10v------------12-10v------------|
D|---------------------------------------------------------------------------|
A|---------------------------------------------------------------------------|
E|---------------------------------------------------------------------------|

e|-------------------------------------3-3---0--3--3-------------------------|
B|-12-12h13p12-------------------------3-3---0--3--3-------------------------|
G|-------------12-10-10/12/10v---\12---0-0---0--0--0-------------------------|
D|-------------------------------------0-0---2--0--0-------------------------|
A|-------------------------------------0-0---2--3--0-------------------------|
E|-------------------------------------3-3---0-----3--0-3--------------------|

[Verse]

G5
Well, I've had enough, I'm tired of waiting
G5
The time will come to pass
G     Cadd2           G
Why do you do what you do to me?
G    Cadd2            G
Why can't you say what you wanna say?

[Verse]

G5
Is it not worth investigating?
G5
I thought I'd better ask
G    Cadd2          G
Why do you go when you wanna stay?
G    Cadd2          G
How will I know what you mean to say?
Cadd2         G
Undoubtedly I'm all over you

[Chorus]

Em           Am7       G6no3rd Am7
It's not that easy, baby
Em           Am7       G6no3rd Am7     
It's not that hard to tell
Em                  
It's not that easy, baby
Am7                        G  Cadd2
Life is hell but I do it well
     G           Cadd2 G
It's hard to tell

[Verse]

G5
I'm not good at contemplating
G5
They're the odds and it won't last
G     Cadd2                  G
Why do you do what you do to me?
G     Cadd2                  G
When will I hear what I wanna hear?

[Verse]

G5
It's been so long anticipating
G5
You put me to the test
G     Cadd2               G
Why do you say what you mean to say?
G     Cadd2               G
How will I know if you're gonna stay?
Cadd2               G
Undeniably I'm all over you

[Chorus]

Em           Am7       G6no3rd Am7
It's not that easy, baby
Em           Am7       G6no3rd Am7     
It's not that hard to tell
Em                  
It's not that easy, baby
Am7                        G  Cadd2
Life is hell but I do it well
     G           Cadd2 G
It's hard to tell

You know that I do that

Gadd2 G/D Gsus4add2 Csus2/D G5/D 
e|-------------------------------------------------------------------------|
B|-0-0--1--1-0--1--3--1--0-------------------------------------------------|
G|-0-0--0--0-0--0--0--0--0-------------------------------------------------|
D|-0-0--0--0-0--0--0--0--0-------------------------------------------------|
A|-0----0--0---------------------------------------------------------------|
E|-3----3--3---------------------------------------------------------------|

[Chorus]

Em           Am7       G6no3rd Am7
It's not that easy, baby
Em           Am7       G6no3rd Am7     
It's not that hard to tell
Em                  
It's not that easy, baby
Am7                        G  
Life is hell but I do it well

[Chorus]

Em           Am7       G6no3rd Am7
It's not that easy, baby
Em           Am7       G6no3rd Am7     
It's not that hard to tell
Em                  
It's not that easy, baby
Am7                        G  Cadd2
Life is hell but I do it well
     G           Cadd2 G
It's hard to tell






            
            
Suggest correction
Creating personal tab
Creating personal tab
You can edit any tab online and save it as your Personal.

You can edit, replace or remove any tab part or add personal notes – all changes will be seen only by you.

Personal tabs can be accessed anytime from any device, even offline.
Learn more »
Give kudos to tab author, rate the tab!
1 2 3 4 5
comments
print report bad tab
guest
You may want to rate the tab now too:
select rating
Wanna post a correction for this tab? Suggest correction