Oops, an error
Loading. Please wait.

I Want You tab

118 views 1 this week
no commentswrite comment
1 2 3 4 5
3 more votes to show rating
add to favorites
×
Save as Personal and add changes to this tab that will be seen only by you. Learn more ›
×
You can save this tab as Personal to edit and correct it or add notes. All changes will be seen only by you. Learn more »
launch autoscroll
font size
0
reset
how to read this tab
guitar tuner
edit
Autoscroll
slow
fast
+/-
esc
set tempo
stop
Author
Difficulty
[Intro]

e|---------------------------------------------------------------------------|
B|---------------------------------------------------------------------------|
G|---------------------------------------------------------------------------|
D|---------------------------------------------------------------------------|
A|-11-11--12--14--12h14-14--12--11-------------------------------------------|
E|-0--0---0----0--0---0--0---0---0-------------------------------------------|


[Verse]

   E   D   A                      E   D   A
e|---------------------------------------------------------------------------|
B|---------------------------------------------------------------------------|
G|---------------------------------------------------------------------------|
D|---------------------------------------------------------------------------|
A|-------------11-11-12--14--12--------------11-11-12--14--12----------------|
E|-------------0--0--0----0---0---------------0-0---0---0---0----------------|



E                  D
Going to write a three act play
   A
So I can be with you
E                   D
Produce, direct, and also act
     A
But who will I cast as you?
                                                  PM
e|---------------------------------------------------------------------------|
B|---------------------------------------------------------------------------|
G|-2--4------9---2--4--7--9---2--4------9---2--4--7-7-7-7-7-----------------|
D|-2--4------9---2--4--7--9---2--4------9---2--4--7-7-7-7-7-----------------|
A|-0--2--6b--7---0--2--5--7---0--2--6b--7---0--2--5-5-5-5-5-----------------|
E|-----------0------------0-------------0-----------------------------------|

A           B          D         E
I'm gonna find her, I'm gonna find her
A           B        D        E
It won't be easy but I don't care
A           B                 E
I'll go to London, New York or Hollywood
A           B                D
I'll search the world for a girl...

[Chorus]
        E
I want you, I don't want nobody else
        A                   D
I want you, I should have known it all along
        E
I want you, just tell me when and where
        C
I want you
              D
Why don't you just give me a call?

[Verse]

   E   D   A                      E   D   A
e|-------------------------------------------------------------------------|
B|-------------------------------------------------------------------------|
G|-------------------------------------------------------------------------|
D|-------------------------------------------------------------------------|
A|-------------11-11-12--14--12--------------11-11-12--14--12--------------|
E|-------------0--0--0----0---0---------------0-0---0---0---0--------------|

E                  D
She went west so religiously
   A
She took a vow
E                  D
Not to return until she learned
   A
What to do and how
                                                  PM
e|-------------------------------------------------------------------------|
B|-------------------------------------------------------------------------|
G|-2--4-------9---2--4--7--9---2--4------9---2--4--7-7-7-7-7---------------|
D|-2--4-------9---2--4--7--9---2--4------9---2--4--7-7-7-7-7---------------|
A|-0--2--6b---7---0--2--5--7---0--2--6b--7---0--2--5-5-5-5-5---------------|
E|------------0------------0-------------0---------------------------------|

A           B           D       E
I'm gonna find her, I'm gonna find her
A           B        D        E
It won't be easy but I don't care
A           B                 E
I'll go to London, New York or Hollywood
A           B                D
I'll search the world for a girl...
         C#
Exactly like you
    A                 C#         A
Uh huh, I'd rather have you, oh yeah

[Chorus] 





            
            
Suggest correction
Creating personal tab
Creating personal tab
You can edit any tab online and save it as your Personal.

You can edit, replace or remove any tab part or add personal notes – all changes will be seen only by you.

Personal tabs can be accessed anytime from any device, even offline.
Learn more »
Give kudos to tab author, rate the tab!
1 2 3 4 5
comments
print report bad tab
guest
You may want to rate the tab now too:
select rating
Wanna post a correction for this tab? Suggest correction