Oops, an error
Loading. Please wait.

Kiss Me Red tab

28 views 1 this week
no commentswrite comment
1 2 3 4 5
3 more votes to show rating
add to favorites
×
Save as Personal and add changes to this tab that will be seen only by you. Learn more ›
×
You can save this tab as Personal to edit and correct it or add notes. All changes will be seen only by you. Learn more »
launch autoscroll
font size
0
reset
how to read this tab
guitar tuner
edit
Autoscroll
slow
fast
+/-
esc
set tempo
stop
[Intro]
                        x4
e|-----------9-8----------------------------------------------------------|
B|-9--9-8-9-------11-9----------------------------------------------------|
G|------------------------------------------------------------------------|
D|------------------------------------------------------------------------|
A|------------------------------------------------------------------------|
E|------------------------------------------------------------------------|



[Verse]

G#
I could paint your picture
        F
In the sky tonight
G#
Your lipstick on the moon
       F
It shines so bright
         Eb            F
Baby, it's full and white
Eb             C#          Eb
Honey, it's full tonight


[Chorus]
                    G#5/Eb
So-a-oh kiss me red
              F#/D
Kiss me rogue
            G#/Eb
Kiss me rough
            F#/D
Kiss me smooth



    G#/D                    F#/D

e|-----------8-----------8------------6------------6-----------|
B|-9-9--9-11---9-9--9-11-----7-7--7-9----7-7--7-9--------------|
G|-8-8---------8-8-----------6-6---------6-6-------------------|
D|-------------------------------------------------------------|
A|-------------------------------------------------------------|
E|-------------------------------------------------------------|


e|-----------8-----------8------------6------------6-----------|
B|-9-9--9-11---9-9--9-11-----7-7--7-9----7-7--7-9--------------|
G|-8-8---------8-8-----------6-6---------6-6-------------------|
D|-------------------------------------------------------------|
A|-------------------------------------------------------------|
E|-------------------------------------------------------------|

F#         Eb
Oh oh oh oh
B            B  F#
Oh oh oh oh


[Verse]

G#
I could paint your picture
          F
In my room tonight
G#
Your body's on my mind 
          F
It's clear and bright
Eb          F             
Oh, but you're far away
Eb           C#         
And what I wouldn't pay
Eb
To kiss you red

[Chorus]
                    G#5/Eb
So-a-oh kiss me red
              F#/D
Kiss me rogue
            G#/Eb
Kiss me rough
            F#/D
Kiss me smooth


[Bridge]

e|---------------------------------------------------------------------------|
B|--------------4--------------4---------------4----------------4-4----------|
G|--------------3--------------3---------------3----------------3-3----------|
D|---------------------------------------------------------------------------|
A|-4-3-4-3-4-3-----4-3-4-3-4-3----4-3-4-3-4-3------4-3-4-3-4-3---------------|
E|---------------------------------------------------------------------------|

E             B
It's black out
                      C#m  G#m
And I'm alone in the dark
E           B                    C#m  G#m
But light a candle to replace your heart
A                     A/G#
What I wouldn't give 
              Eb
To have you here in my bed


[Chorus]
                    G#5/Eb
So-a-oh kiss me red
              F#/D
Kiss me rogue
            G#/Eb
Kiss me rough
            F#/D
Kiss me smooth


    G#/D                    F#/D

e|-----------8-----------8------------6------------6-----------|
B|-9-9--9-11---9-9--9-11-----7-7--7-9----7-7--7-9--------------|
G|-8-8---------8-8-----------6-6---------6-6-------------------|
D|-------------------------------------------------------------|
A|-------------------------------------------------------------|
E|-------------------------------------------------------------|


e|-----------8-----------8------------6------------6-----------|
B|-9-9--9-11---9-9--9-11-----7-7--7-9----7-7--7-9--------------|
G|-8-8---------8-8-----------6-6---------6-6-------------------|
D|-------------------------------------------------------------|
A|-------------------------------------------------------------|
E|-------------------------------------------------------------|

F#         Eb
Oh oh oh oh
B            B  F#
Oh oh oh oh



            
            
Suggest correction
Creating personal tab
Creating personal tab
You can edit any tab online and save it as your Personal.

You can edit, replace or remove any tab part or add personal notes – all changes will be seen only by you.

Personal tabs can be accessed anytime from any device, even offline.
Learn more »
Give kudos to tab author, rate the tab!
1 2 3 4 5
comments
print report bad tab
guest
You may want to rate the tab now too:
select rating
Wanna post a correction for this tab? Suggest correction