Oops, an error
Loading. Please wait.

Let Go tab

43 views 1 this week
no commentswrite comment
1 2 3 4 5
3 more votes to show rating
add to favorites
×
Save as Personal and add changes to this tab that will be seen only by you. Learn more ›
×
You can save this tab as Personal to edit and correct it or add notes. All changes will be seen only by you. Learn more »
launch autoscroll
font size
0
reset
how to read this tab
guitar tuner
edit
Autoscroll
slow
fast
+/-
esc
set tempo
stop
[Intro]
           
e|---------------------------------------------------------------------------|
B|---------------------------------------------------------------------------|
G|-----------7-6--------------------------7-6--------------------------------|
D|----7---5-------7-5-----5h7------7---5-------7-5-----5h7-------------------|
A|--0---0--------------0--------0---0---------------0------------------------|
E|---------------------------------------------------------------------------|

e|---------------------------------------------------------------------------|
B|---------------------------------------------------------------------------|
G|-----------7-6--------------------------7-6--------------------------------|
D|----7---5-------7-5-----5h7------7---5-------7-5---------------------------|
A|--0---0--------------0--------0---0----------------------------------------|
E|---------------------------------------------------------------------------|


[Verse]

   D  pm          A pm          D  pm           A pm          D  pm
e|---------------------------------------------------------------------------|
B|---------------------------------------------------------------------------|
G|---------------------------------------------------------------------------|
D|-7--7-7-7-7-7-----------------7--7-7-7-7-7------------------7--7-7-7-7-7---|
A|-5--5-5-5-5-5--7--7-7-7-7-7---5--5-5-5-5-5---7--7-7-7-7-7---5--5-5-5-5-5---|
E|---------------5--5-5-5-5-5------------------5--5-5-5-5-5------------------|

   A  pm           G
e|--------------------------------------------------------------------------|
B|-----------------------------------2/8------------------------------------|
G|---------------------------5-4--------------------------------------------|
D|--------------------5---3-------5-----------------------------------------|
A|-7--7-7-7-7-7-------------------------------------------------------------|
E|-5--5-5-5-5-5----3---3----------------------------------------------------|


D                 A                           D
I took your photographs, I threw them all away
                     A                            D
I put your calls on hold 'cause I got nothin' to say
               A                       G
Hangin' on to you, that was my first mistake

Yeah, yeah


[Pre-Chorus]

   E5 F#m   A                   Asus
e|--------------------------------------------------------------------------|
B|----------2-2-------------2-2--3-2----------------------------------------|
G|----------2-2-------------2-2--2-2----------------------------------------|
D|-2--------2-2----2--------2-2--2-2----------------------------------------|
A|-2--------0-0----2--------0-0--0-0----------------------------------------|
E|-0--2--3---------0--2--3--------------------------------------------------|

   E5            F#m           A
But some things you can never let go
E5               F#m           
Some things you can never let go

[Verse]

   D  pm          A pm          D  pm           A pm          D  pm
e|---------------------------------------------------------------------------|
B|---------------------------------------------------------------------------|
G|---------------------------------------------------------------------------|
D|-7--7-7-7-7-7-----------------7--7-7-7-7-7------------------7--7-7-7-7-7---|
A|-5--5-5-5-5-5--7--7-7-7-7-7---5--5-5-5-5-5---7--7-7-7-7-7---5--5-5-5-5-5---|
E|---------------5--5-5-5-5-5------------------5--5-5-5-5-5------------------|

   A  pm           G
e|---------------------------------------------------------------------------|
B|-----------------------------------2/8-------------------------------------|
G|---------------------------5-4---------------------------------------------|
D|--------------------5---3-------5------------------------------------------|
A|-7--7-7-7-7-7--------------------------------------------------------------|
E|-5--5-5-5-5-5----3---3-----------------------------------------------------|


D                   A                           D
You took the credit cards, you took the bank account
                 A                              D
You took my sanity, you've got me all drawn out
                 A                          G
I'd give it all away to get you off of my mind

Yeah, yeah


[Pre-Chorus]


  E5 F#m   A                   Asus
e|--------------------------------------------------------------------------|
B|----------2-2-------------2-2--3-2----------------------------------------|
G|----------2-2-------------2-2--2-2----------------------------------------|
D|-2--------2-2----2--------2-2--2-2----------------------------------------|
A|-2--------0-0----2--------0-0--0-0----------------------------------------|
E|-0--2--3---------0--2--3--------------------------------------------------|

   E5            F#m           A
But some things you can never let go
E5               F#m           
Some things you can never let go
E5               F#m           A
Some things you can never let go


[Chorus]

D
Let go, let go
              A
Don't keep draggin' it out
D
Let go, let go
            A
You're no good for me now
          D
How much more can I take?
         A                          E
I can't spend my whole life in the dark
              G   A
Now you gotta let go of my heart

e|---------------------------------------------------------------------------|
B|----------8-7-----------------------8-7------------------------------------|
G|---7---5------7-5----5h7-----7---5------7-5--------------------------------|
D|-0---0-------------0-------0---0-------------------------------------------|
A|---------------------------------------------------------------------------|
E|---------------------------------------------------------------------------|

          
[Verse]

   D  pm          A pm          D  pm           A pm          D  pm
e|---------------------------------------------------------------------------|
B|---------------------------------------------------------------------------|
G|---------------------------------------------------------------------------|
D|-7--7-7-7-7-7-----------------7--7-7-7-7-7------------------7--7-7-7-7-7---|
A|-5--5-5-5-5-5--7--7-7-7-7-7---5--5-5-5-5-5---7--7-7-7-7-7---5--5-5-5-5-5---|
E|---------------5--5-5-5-5-5------------------5--5-5-5-5-5------------------|

   A  pm           G
e|---------------------------------------------------------------------------|
B|-----------------------------------2/8-------------------------------------|
G|---------------------------5-4---------------------------------------------|
D|--------------------5---3-------5------------------------------------------|
A|-7--7-7-7-7-7--------------------------------------------------------------|
E|-5--5-5-5-5-5----3---3-----------------------------------------------------|


D                   A                      D
I took your photographs, I threw them all aside
                      A                         D
Forget your so called friends, I kissed 'em all goodbye
            A                    G
If I walk away, would you be satisfied?

Yeah, yeah


[Pre-Chorus]


   E5 F#m   A                   Asus
e|--------------------------------------------------------------------------|
B|----------2-2-------------2-2--3-2----------------------------------------|
G|----------2-2-------------2-2--2-2----------------------------------------|
D|-2--------2-2----2--------2-2--2-2----------------------------------------|
A|-2--------0-0----2--------0-0--0-0----------------------------------------|
E|-0--2--3---------0--2--3--------------------------------------------------|

   E5            F#m           A
But some things you can never let go
E5               F#m           
Some things you can never let go
E5               F#m           A
Some things you can never let go


[Chorus]

D
Let go, let go
              A
Don't keep draggin' it out
D
Let go, let go
            A
You're no good for me now
          D
How much more can I take?
         A                          E
I can't spend my whole life in the dark
              G   A
Now you gotta let go of my heart

[Bridge]

e|---------------------------------------------------------------------------|
B|---------------------------------------------------------------------------|
G|-------------0-2-0---------------------------------------------------------|
D|-0-0-2-2-4-4-------------------0-2-0--0-0-0-0--0-0-0-----------------------|
A|-------------------0-0-2-2-4-4---------------------------------------------|
E|---------------------------------------------------------------------------|


[Pre-Chorus]


   E5 F#m   A                   Asus
e|--------------------------------------------------------------------------|
B|----------2-2-------------2-2--3-2----------------------------------------|
G|----------2-2-------------2-2--2-2----------------------------------------|
D|-2--------2-2----2--------2-2--2-2----------------------------------------|
A|-2--------0-0----2--------0-0--0-0----------------------------------------|
E|-0--2--3---------0--2--3--------------------------------------------------|

E5 F#m  A

   E5            F#m           A
But some things you can never let go
E5               F#m           
Some things you can never let go
E5               F#m           A
Some things you can never let go


[Chorus]

D
Let go, let go
              A
Don't keep draggin' it out
D
Let go, let go
            A
You're no good for me now
          D
How much more can I take?
         A                          E
I can't spend my whole life in the dark
              G   A
Now you gotta let go of my heart
G      D   A  G      D   A
Gotta let go, gotta let go
G     D   A   G     D   A
Gotta let go, gotta let go...of my heart

[Outro]

e|---------------------------------------------------------------------------|
B|----------8-7-----------------------8-7------------------------------------|
G|---7---5------7-5----5h7-----7---5------7-5--------------------------------|
D|-0---0-------------0-------0---0-------------------------------------------|
A|---------------------------------------------------------------------------|
E|---------------------------------------------------------------------------|









            
            
Suggest correction
Creating personal tab
Creating personal tab
You can edit any tab online and save it as your Personal.

You can edit, replace or remove any tab part or add personal notes – all changes will be seen only by you.

Personal tabs can be accessed anytime from any device, even offline.
Learn more »
Give kudos to tab author, rate the tab!
1 2 3 4 5
comments
print report bad tab
guest
You may want to rate the tab now too:
select rating
Wanna post a correction for this tab? Suggest correction