Oops, an error
Loading. Please wait.

The Sunshine Of Your Youth bass

247 views 6 this week
no commentswrite comment
1 2 3 4 5
2 more votes to show rating
add to favorites
×
Save as Personal and add changes to this tab that will be seen only by you. Learn more ›
×
You can save this tab as Personal to edit and correct it or add notes. All changes will be seen only by you. Learn more »
launch autoscroll
font size
0
reset
guitar tuner
edit
Autoscroll
slow
fast
+/-
esc
set tempo
stop
Author
Difficulty
Intro:
G-------------------------------------------------------------------------|
D-------------------------------------------------------------------------|
A---5555555555555555-0000000-7777777-555555555555555-0000000-77777777-9/5-|
E-------------------------------------------------------------------------|

Verse: (0:16)* alt at bottom
G-------------------------------------------------------------------------------|
D-------------------------------------------------------------------------------|
A---5555555555555555-0000000-7777777-9\7-555555555555555-0000000-77777777-9\7\5-|
E-------------------------------------------------------------------------------|

Pre-chorus: (0:30) "And now you’re trying to explain…"
G----------------------------------------------------------------------------|
D----------------------------------------------------------------------------|
A---2-2-2/4---555555555-------77777777----2-2-2/4---555555555-------77777777-|
E----------------------5-5-5/7-------------------------------5-5-5/7---------|

Chorus: (0:45) "And now that you’re over, are you dreaming…* alt at bottom"
G------------------------------------------------------------------------|
D------------------------------------------------------------------------|
A---5555555555555555-0000000-7777777-555555555555555-0000000-77777777----|
E------------------------------------------------------------------------|

Chorus contd: (1:10) "a promise… to be honest with yourself?"
G----------------------------------------------------------------------------------|
D----------------------------------------------------------------------------------|
A---2-2-2/4---555555555--------77777777---2-2-2/4---555555555-------77777777-9\7\5-|
E----------------------5-5-5/7-------------------------------5-5-5/7---------------|

Intro.
Verse.
Pre-chorus.
Chorus.
Chorus contd.

Bridge: (2:33) "... Now, are you dreaming? Tell me how you’re feeling." * alt at bottom
G---------------------------------------------|
D---------------------------------------------|
A---22222222-5555555555-22222222-5555555555-7-|
E---------------------------------------------|

Intro.

Ending: (3:02)
G---------------------------------------------------------------------------------------------------------|
D---------------------------------------------------------------------------------------------------------|
A-55555555-0000000-7777777----2-2-2/4---555555555-------77777777---2-2-2/4-555555555-------77777777-9\7\5-|
E------------------------------------------------5-5-5/7----------------------------5-5-5/7---------------|

~~~~~~~~~~~~~~~~~~~~~~~~~~~~~~~~~~~~~~~~~~~~~~~~~~~~~~~~~~~~~~~~~~~~~


Alt Verse: (makes transition easier, sounds weird if you have a light D string)
G-------------------------------------------------------------------------------|
D----------------------------------------------------------------22222222-4\2\0-|
A---5555555555555555-0000000-7777777-9\7-555555555555555-0000000----------------|
E-------------------------------------------------------------------------------|

Alt Chorus: (makes transition easier, sounds weird if you have a light D string)
G---------------------------------------------------------------------|
D------------------------------------------------------------22222222-|
A---5555555555555555-0000000-7777777-555555555555555-0000000----------|
E---------------------------------------------------------------------|

Alt Bridge: (easier, but may sound odd if you have a heavy E string)
G------------------------------------------------------|
D------------------------------------------------------|
A----------------5555555555---------------5555555555-7-|
E---55555555------------------55555555-----------------|

| /  slide up
| \  slide down
| h  hammer-on
| p  pull-off
| ~  vibrato
| +  harmonic
| x  Mute note
===============================================================================

            
            
Suggest correction
Creating personal tab
Creating personal tab
You can edit any tab online and save it as your Personal.

You can edit, replace or remove any tab part or add personal notes – all changes will be seen only by you.

Personal tabs can be accessed anytime from any device, even offline.
Learn more »
Give kudos to tab author, rate the tab!
1 2 3 4 5
comments
print report bad tab
guest
You may want to rate the tab now too:
select rating
Wanna post a correction for this tab? Suggest correction