Oops, an error
Loading. Please wait.

Halfway To Nowhere tab

by Chelou
784 views 33 this week
no commentswrite comment
1 2 3 4 5
1 last vote to show rating
add to favorites
×
Save as Personal and add changes to this tab that will be seen only by you. Learn more ›
×
You can save this tab as Personal to edit and correct it or add notes. All changes will be seen only by you. Learn more »
launch autoscroll
font size
0
reset
how to read this tab
guitar tuner
edit
Autoscroll
slow
fast
+/-
esc
set tempo
stop
About this tab version
Easy acoustic tab for Halfway To Nowhere. Was this info helpful? Yes No
I do not own the rights to this song.
Halfway to Nowhere by Chelou
Listen to song for rhythm.


[Verse 1]
    |Dm     |C      |F      |G7
e|----------------------1-------1-----1-----1-----1---|
B|------3-------1-----2-1-------0-----0-----0-----0---|
G|----2-2-----0-0---3---------0-----0-----0-----0-----|
D|--0-------------------------------------------------|
A|----------3-----------------------------------------|
E|--------------------------3-----3-----3-----3-------|

Dm         C           F            G7
How do you get out of bed in the morning?
Dm         C       F          G7
How do you wake to carry the day?

[Chorus]
    |F            |G7
e|--------------------1-----1-------------------------|
B|------1-----1-------0-----0-------------------------|
G|----2-2---2-2-----0-----0---------------------------|
D|----------------------------------------------------|
A|--0-----0-------------------------------------------|
E|----------------3-----3-----------------------------|

      F        G7
And I sing for pleasure
     F        G7
I've sung for pain
          F          G7
I'm still halfway to nowhere
          F       G7
I'm still nothing today

[Verse 2]
    |Dm     |C      |F      |G7
e|----------------------1-------1-----1-----1-----1---|
B|------3-------1-----2-1-------0-----0-----0-----0---|
G|----2-2-----0-0---3---------0-----0-----0-----0-----|
D|--0-------------------------------------------------|
A|----------3-----------------------------------------|
E|--------------------------3-----3-----3-----3-------|

             Dm          C       F         G7
They tell me good things come to those who wait
            Dm      C          F         G7
Despite the process along that came from fame


[Chorus] x2
    |F            |G7
e|--------------------1-----1-------------------------|
B|------1-----1-------0-----0-------------------------|
G|----2-2---2-2-----0-----0---------------------------|
D|----------------------------------------------------|
A|--0-----0-------------------------------------------|
E|----------------3-----3-----------------------------|

      F        G7
And I sing for pleasure
     F        G7
I've sung for pain
          F          G7
I'm still halfway to nowhere
          F       G7
I'm still nothing today

            
            
Suggest correction
Creating personal tab
Creating personal tab
You can edit any tab online and save it as your Personal.

You can edit, replace or remove any tab part or add personal notes – all changes will be seen only by you.

Personal tabs can be accessed anytime from any device, even offline.
Learn more »
Give kudos to tab author, rate the tab!
1 2 3 4 5
comments
print report bad tab
guest
You may want to rate the tab now too:
select rating
Wanna post a correction for this tab? Suggest correction