Oops, an error
Loading. Please wait.

Dont Ask Dont Tell guitar pro

version 2
version 2

Whole song

Interactive

18,008 views 6 this week
6 commentsread comments
1 2 3 4 5
x 14
add to favorites
guitar tuner
Autoscroll
slow
fast
+/-
esc
set tempo
stop
"Dont Ask Dont Tell"
demo version
Play now

or get full version for Free

×
Get full version now!
Learn and play this song
in Tab Pro
Try for free

or get $10 off Welcome Bonus

Get welcome bonus
Get access to Tab Pro version of “Dont Ask Dont Tell”!
Tab Pro is a premium guitar tab service, available on PC, Mac, iOS and Android
TRY FOR FREE
To download “Dont Ask Dont Tell” Guitar Pro tab click button below
Please note that you must have Guitar Pro software installed on your
computer in order to view this file.
Suggest correction
comments
report bad tab
6 comments total. Showing first comments.
+1 reply
SHartsell 51 Jan 15, 2013 05:53 AM

Main Line: (use your ears for timing)

E-----------------------------10-10-----------12-12---------------------|
B-----------12-12-10-10h12p10-------------------------------------------|
G-9-9-10-10-------------------------10-10-9-9-------10-10-9-9-9-9-10-10-|
D-----------------------------------------------------------------------|
A-----------------------------------------------------------------------|
E-----------------------------------------------------------------------|
A-----------------------------------------------------------------------|

Harmony:

E--------------------------------13-13-------------15-15--------------|
B--------------15-15-13-13h15p13--------------------------------------|
G--12-12-14-14-------------------------14-14-12-12-------14-14-12-12--|
D---------------------------------------------------------------------|
A---------------------------------------------------------------------|
E---------------------------------------------------------------------|
A---------------------------------------------------------------------|

Repeat main line in the little acoustic breaks

At 2:10, use the main line one octave higher:

E---------------------------------22-22-------------24-24-------------|
B--------------24-24--22-22h24p22-------------------------------------|
G--21-21-22-22--------------------------22-22-21-21-------22-22-21-21-|
D---------------------------------------------------------------------|
A---------------------------------------------------------------------|
E---------------------------------------------------------------------|
A---------------------------------------------------------------------|

This is one of my favorite songs :)

0 reply
GustavoSyh 68 Mar 21, 2013 02:59 PM

dude this tabs aren't working

0 reply
xxchristianxx 58 Nov 25, 2013 04:04 AM

@gustavosyh it works he just only tabbed out the beginning of the song. Nobody has done the whole thing. I have the 1st tab someone did an they're all the same

guest
You may want to rate the tab now too:
select rating