Oops, an error
Loading. Please wait.

Revenant tab

version 2
version 2

Whole song

Interactive

133 views 1 this week
no commentswrite comment
1 2 3 4 5
3 more votes to show rating
add to favorites
×
Save as Personal and add changes to this tab that will be seen only by you. Learn more ›
×
You can save this tab as Personal to edit and correct it or add notes. All changes will be seen only by you. Learn more »
launch autoscroll
font size
0
reset
how to read this tab
guitar tuner
edit
Autoscroll
slow
fast
+/-
esc
set tempo
stop
Author
Difficulty
Revenant - Chelsea Grin
Tabbed by: Aenvir
E-mail: Aaron77524@gmail.com

Revenant by Chelsea Grin from their album Desolation of Eden

Drop A 7 string { A E A D G B E }

-----------------------------------------------------------------------------------------------

Rhythm Guitar

Intro:

(0:02-0:45)

E |-----------------------------------------|
B |-----------------------------------------|
G |-----------------------------------------|
D |-----------------------------------------|
A |-3333-33-33-33---3333-----3333-----------|
E |-2222-22-22-22---2222-3*b-2222-----------|
A |-3333-33-33-33---3333-----3333-000-0-0-0-|
 PM .... .. .. ..   ....     ....

E |-----------------------------------------|
B |-----------------------------------------|
G |-----------------------------------------|
D |-----------------------------------------| X3
A |-333-33-33-33---3333-----3333------------|
E |-222-22-22-22---2222-3*b-2222------------|
A |-333-33-33-33---3333-----3333-000-0-0-0--|
 PM ... .. .. ..   ....     ....

E |---------------------------------------------------------------------------|
B |---------------------------------------------------------------------------|
G |---------------------------------------------------------------------------|
D |---------------------------------------------------------------------------|
A |-0------4--8----5---1------------------------------------------------------|
E |-0------4--8----5---1------------------------------------------------------|
A |-0------4--8----5---1------------------------------------------------------|

Verse:

(0:46-1:20)

E |------------------------------------------------------------------------------|
B |----------------------------------------------------------------3t-2t---------|
G |----------------------------------------------------------------------3t-2t---|
D |----------0t-2t-3t-2t--0t-2t-0t-----------------0t-2t-3t-2t--0t---------------| X2
A |-0t--1t-4t-----------------------4t-1t-0t--1t-4t------------------------------|
E |------------------------------------------------------------------------------|
A |------------------------------------------------------------------------------|


E |--------------------------------------------------------------------------|
B |--------------------------------------------------------------------------|
G |--------------------------------------------------------------------------|
D |--------------------------------------------------------------------------| X2
A |-00-00--0-0-0-00-00-0-00-00-0-0000-0000--0-0-0-00-00-0--------------------|
E |-00-00--0-0-0-00-00-0-00-00-0-0000-0000--0-0-0-00-00-0--------------------|
A |-00-00--0-0-0-00-00-0-00-00-0-0000-0000--0-0-0-00-00-0--------------------|
 PM .. ..  . . . .. .. . .. .. . .... ....  . . . .. .. .

Solo:

(1:21-1:37)

E |--------------------------------------------------------------------------|
B |--------------------------------------------------------------------------|
G |--------------------------------------------------------------------------|
D |--------------------------------------------------------------------------|
A |-0-------1----5--4--0------4--8---5--1------------------------------------|
E |-0-------1----5--4--0------4--8---5--1------------------------------------|
A |-0-------1----5--4--0------4--8---5--1------------------------------------|

Breakdown:

(1:38-2:12)

E |--------------------------------------------------------------------------|
B |--------------------------------------------------------------------------|
G |--------------------------------------------------------------------------|
D |--------------------------------------------------------------------------|
A |-1-1111--1111-1111-1-1-1-1--1-1-1-1-1-------------------------------------|
E |-0-0000--0000-0000-0-0-0-0--0-0-0-0-0-------------------------------------|
A |-1-1111--1111-1111-1-1-1-1--1-1-1-1-1-------------------------------------|
 PM . ....  .... .... . . . .  . . . . .

Verse:

(2:13-2:21)

E |------------------------------------------------------------------------------|
B |----------------------------------------------------------------3t-2t---------|
G |----------------------------------------------------------------------3t-2t---|
D |----------0t-2t-3t-2t--0t-2t-0t-----------------0t-2t-3t-2t--0t---------------|
A |-0t--1t-4t-----------------------4t-1t-0t--1t-4t------------------------------|
E |------------------------------------------------------------------------------|
A |------------------------------------------------------------------------------|

(2:22)

A |----00-|
E |----00-|
A |----00-|
 PM    ..

(2:23-2:56)

E |--------------------------------------------------------------------------|
B |--------------------------------------------------------------------------|
G |--------------------------------------------------------------------------|
D |--------------------------------------------------------------------------| X4
A |-00-00--0-0-0-00-00-0-00-00-0-0000-0000--0-0-0-00-00-0--------------------|
E |-00-00--0-0-0-00-00-0-00-00-0-0000-0000--0-0-0-00-00-0--------------------|
A |-00-00--0-0-0-00-00-0-00-00-0-0000-0000--0-0-0-00-00-0--------------------|
 PM .. ..  . . . .. .. . .. .. . .... ....  . . . .. .. .

(2:57-3:08)

E |--------------------------------------------------------------------------|
B |--------------------------------------------------------------------------|
G |--------------------------------------------------------------------------|
D |--------------------------------------------------------------------------|
A |-0~-----------------------------------------------------------------------|
E |-0~-----------------------------------------------------------------------|
A |-0~-----------------------------------------------------------------------|

Breakdown\Outro:

(3:09-4:07)

E |------------------------------------------------------------------------------|
B |------------------------------------------------------------------------------|
G |------------------------------------------------------------------------------|
D |--------77-77-77----------77-77-77--------------------------------------------| X8
A |--------88-88-88----------88-88-88--------------------------------------------|
E |-5-5555----------55-55-55----------000-0-0-0--0-0-0-0-0--0-0-0-0-0--000-0-0-0-|
A |-5-5555----------55-55-55----------111-1-1-1--1-1-1-1-1--1-1-1-1-1--111-1-1-1-|
 PM . ....          .. .. ..          ... . . .  . . . . .  . . . . .  ... . . .


-----------------------------------------------------------------------------------------------


Lead Guitar

Intro:

(0:02-0:36)

E |-----------------------------------------|
B |-----------------------------------------|
G |-----------------------------------------|
D |-----------------------------------------|
A |-3333-33-33-33---3333-----3333-----------|
E |-2222-22-22-22---2222-3*b-2222-----------|
A |-3333-33-33-33---3333-----3333-000-0-0-0-|
 PM .... .. .. ..   ....     ....

E |-----------------------------------------|
B |-----------------------------------------|
G |-----------------------------------------|
D |-----------------------------------------| X3
A |-333-33-33-33---3333-----3333------------|
E |-222-22-22-22---2222-3*b-2222------------|
A |-333-33-33-33---3333-----3333-000-0-0-0--|
 PM ... .. .. ..   ....     ....


E |------------------------------------------------------------------------------|
B |----------------------------------------------------------------3t-2t---------|
G |----------------------------------------------------------------------3t-2t---|
D |----------0t-2t-3t-2t--0t-2t-0t-----------------0t-2t-3t-2t--0t---------------|
A |-0t--1t-4t-----------------------4t-1t-0t--1t-4t------------------------------|
E |------------------------------------------------------------------------------|
A |------------------------------------------------------------------------------|

Verse:

(0:45-1:20)

E |------------------------------------------------------------------------------|
B |----------------------------------------------------------------3t-2t---------|
G |----------------------------------------------------------------------3t-2t---|
D |----------0t-2t-3t-2t--0t-2t-0t-----------------0t-2t-3t-2t--0t---------------| X4
A |-0t--1t-4t-----------------------4t-1t-0t--1t-4t------------------------------|
E |------------------------------------------------------------------------------|
A |------------------------------------------------------------------------------|

Solo:

(1:21-1:42)

E |----------------------------------------------------------------------------|
B |----------------------------------------------------------------------------|
G |-9h10p9--7-7-9-9--7s6s3s2-2h3p2--0-0-2-2--3-2-0-----------------------------|
D |--------------------------------------------------3-------------------------|
A |----------------------------------------------------------------------------|
E |----------------------------------------------------------------------------|
A |----------------------------------------------------------------------------|

E |-------------------------------------------------------------------------|
B |----------------17h22p17----------------------------17h22p17-------------|
G |-------------20----------20----------------------20----------20----------|
D |----------17----------------17----------------17----------------17-------| X2
A |-------19----------------------19----------19----------------------19----|
E |-17h20----------------------------20h17p20----------------------------20-|
A |-------------------------------------------------------------------------|

E |-------------------------------------------------------------------------|
B |----------------17h18p17----------------------------17h18p17-------------|
G |-------------20----------20----------------------20----------20----------|
D |----------17----------------17----------------17----------------17-------|
A |-------19----------------------19----------19----------------------19----|
E |-17h20----------------------------20h17p20----------------------------20-|
A |-------------------------------------------------------------------------|

E |-------------------------------------------------------------------------|
B |----------------17h18p17----------------17h18p17----------17h18~--17-----|
G |-------------20----------20----------20----------20----20----------------|
D |----------17----------------------17----------------17-------------------|
A |-------19----------------------19----------------------------------------|
E |-17h20-------------------------------------------------------------------|
A |-------------------------------------------------------------------------|

Breakdown:

(1:43-1:54)

E |--------------------------------------------------------------------------|
B |--------------------------------------------------------------------------|
G |--------------------------------------------------------------------------|
D |--------------------------------------------------------------------------|
A |-1-1111--1111-1111-1-1-1-1--1-1-1-1-1-------------------------------------|
E |-0-0000--0000-0000-0-0-0-0--0-0-0-0-0-------------------------------------|
A |-1-1111--1111-1111-1-1-1-1--1-1-1-1-1-------------------------------------|
 PM . ....  .... .... . . . .  . . . . .

(1:55-2:12)

E |--------------------------------------------------------------------------|
B |--------------------------------------------------------------------------|
G |--------------------------------------------------------------------------|
D |-7--7--7--7--7--7--7--7--7--7--7--7--7--7--7--7---------------------------|
A |-7--7--7--7--7--7--7--7--7--7--7--7--7--7--7--7---------------------------|
E |--------------------------------------------------------------------------|
A |--------------------------------------------------------------------------|

E |--------------------------------------------------------------------------|
B |--------------------------------------------------------------------------|
G |--------------------------------------------------------------------------|
D |-8--8--8--8--8--8--8--8--8--8--8--8--8--8--8--8---------------------------|
A |-8--8--8--8--8--8--8--8--8--8--8--8--8--8--8--8---------------------------|
E |--------------------------------------------------------------------------|
A |--------------------------------------------------------------------------|

E |--------------------------------------------------------------------------|
B |--------------------------------------------------------------------------|
G |--------------------------------------------------------------------------|
D |-7--7--7--7--7--7--7--7--7--7--7--7--7--7--7--7---------------------------|
A |-7--7--7--7--7--7--7--7--7--7--7--7--7--7--7--7---------------------------|
E |--------------------------------------------------------------------------|
A |--------------------------------------------------------------------------|

E |--------------------------------------------------------------------------|
B |--------------------------------------------------------------------------|
G |--------------------------------------------------------------------------|
D |-10--10--10--10--10--11--10--10--8--8--8--8--8-----8----------------------|
A |-7---7---7---7---7---7---7---7---8--8--8--8--8--8-----8-------------------|
E |--------------------------------------------------------------------------|
A |--------------------------------------------------------------------------|


Verse:

(2:13-2:21)

E |------------------------------------------------------------------------------|
B |----------------------------------------------------------------3t-2t---------|
G |----------------------------------------------------------------------3t-2t---|
D |----------0t-2t-3t-2t--0t-2t-0t-----------------0t-2t-3t-2t--0t---------------|
A |-0t--1t-4t-----------------------4t-1t-0t--1t-4t------------------------------|
E |------------------------------------------------------------------------------|
A |------------------------------------------------------------------------------|

(2:22)

A |-00----|
E |-00----|
A |-00----|
 PM ..

(2:23-2:39)

E |--------------------------------------------------------------------------|
B |--------------------------------------------------------------------------|
G |--------------------------------------------------------------------------|
D |--------------------------------------------------------------------------| X2
A |-00-00--0-0-0-00-00-0-00-00-0-0000-0000--0-0-0-00-00-0--------------------|
E |-00-00--0-0-0-00-00-0-00-00-0-0000-0000--0-0-0-00-00-0--------------------|
A |-00-00--0-0-0-00-00-0-00-00-0-0000-0000--0-0-0-00-00-0--------------------|
 PM .. ..  . . . .. .. . .. .. . .... ....  . . . .. .. .

(2:40-2:56)

E |--------------------------------------------------------------------------------|
B |-----------------------------------------------------------------------3-2------|
G |---------------------------------------------------------------------------3-2--|
D |----------0-2-2h3p2p0-2---0-2-0--------------------0-2-2h3p2p0-2---3------------| X2
A |-0---1-4------------------------4h5p4p1p0-0---1-4-------------------------------|
E |--------------------------------------------------------------------------------|
A |--------------------------------------------------------------------------------|

(2:57-3:08)

E |--------------------------------------------------------------------------|
B |--------------------------------------------------------------------------|
G |--------------------------------------------------------------------------|
D |--------------------------------------------------------------------------|
A |-0~-----------------------------------------------------------------------|
E |-0~-----------------------------------------------------------------------|
A |-0~-----------------------------------------------------------------------|

Breakdown\Outro:

(3:09-4:07)

E |------------------------------------------------------------------------------|
B |------------------------------------------------------------------------------|
G |------------------------------------------------------------------------------|
D |--------77-77-77----------77-77-77--------------------------------------------| X8
A |--------88-88-88----------88-88-88--------------------------------------------|
E |-5-5555----------55-55-55----------000-0-0-0--0-0-0-0-0--0-0-0-0-0--000-0-0-0-|
A |-5-5555----------55-55-55----------111-1-1-1--1-1-1-1-1--1-1-1-1-1--111-1-1-1-|
 PM . ....          .. .. ..          ... . . .  . . . . .  . . . . .  ... . . .

-----------------------------------------------------------------------------------------------

(2:22) - In song, you can hear that, LEAD guitar is played on the left speaker, and 
RHYTHM on right speaker.

If you play the lead guitar, you have to play ONLY the left speaker chug.
If you play the rhythm guitar, you have to play ONLY the right speaker chug.


************************************

| *   Pinch Harmonic
| t   Tremolo
| h   Hammer-on
| p   Pull-off
| ~   Let Ring

************************************

            
            
Suggest correction
Creating personal tab
Creating personal tab
You can edit any tab online and save it as your Personal.

You can edit, replace or remove any tab part or add personal notes – all changes will be seen only by you.

Personal tabs can be accessed anytime from any device, even offline.
Learn more »
Give kudos to tab author, rate the tab!
1 2 3 4 5
comments
print report bad tab
guest
You may want to rate the tab now too:
select rating
Wanna post a correction for this tab? Suggest correction