Oops, an error
Loading. Please wait.

16 Psyche tab

version 1
version 1

Whole song

Interactive

2,095 views 69 this week
4 commentsread comments
1 2 3 4 5
1 last vote to show rating
add to favorites
×
Save as Personal and add changes to this tab that will be seen only by you. Learn more ›
×
You can save this tab as Personal to edit and correct it or add notes. All changes will be seen only by you. Learn more »
launch autoscroll
font size
0
reset
how to read this tab
guitar tuner
edit
Autoscroll
slow
fast
+/-
esc
set tempo
stop
Figured this out by ear; there is a solo in the bridge that I have not tabbed, but the 
corresponding chords underneath it are.

Tuning: EADGBe

[Intro/Verse]
e|----------|----------------------------------------------------------------|
B|----------|----------------------------------------------------------------|
G|----------|----------------------------------------------------------------|
D|----------|----------------------------------------------------------------|  (x10)
A|-3-3-5b-3-|-6-6-6b-5-------------------------------------------------------|
E|----------|----------------------------------------------------------------|
   
   I've spent in different beds
   Many moons
   That's the way I prefer it


[Chorus]
e|-----------------|-----------------|---------------------------------------|
B|-----------------|-----------------|---------------------------------------|
G|-8-8-8-8-8-8-8-8-|-5-5-5-5-5-5-5-5-|---------------------------------------|
D|-8-8-8-8-8-8-8-8-|-5-5-5-5-5-5-5-5-|-3-3-3-3-3-3-3-3-----------------------| (x3)
A|-6-6-6-6-6-6-6-6-|-3-3-3-3-3-3-3-3-|-3-3-3-3-3-3-3-3-----------------------|
E|-----------------|-----------------|-1-1-1-1-1-1-1-1-----------------------|

   "I can't," she said
   I'd save you
   "I can't hide"

[Verse]
e|----------|----------------------------------------------------------------|
B|----------|----------------------------------------------------------------|
G|----------|----------------------------------------------------------------|
D|----------|----------------------------------------------------------------|  (x10)
A|-3-3-5b-3-|-6-6-6b-5-------------------------------------------------------|
E|----------|----------------------------------------------------------------|

   I feel it crawl up my legs
   Let me wrazp you up in these thighs
   Gets me out of my head again

[Chorus]
e|-----------------|-----------------|---------------------------------------|
B|-----------------|-----------------|---------------------------------------|
G|-8-8-8-8-8-8-8-8-|-5-5-5-5-5-5-5-5-|---------------------------------------|
D|-8-8-8-8-8-8-8-8-|-5-5-5-5-5-5-5-5-|-3-3-3-3-3-3-3-3-----------------------| (x3)
A|-6-6-6-6-6-6-6-6-|-3-3-3-3-3-3-3-3-|-3-3-3-3-3-3-3-3-----------------------|
E|-----------------|-----------------|-1-1-1-1-1-1-1-1-----------------------|

   "I can't," she said
   I'll save you
   "I can't love"

[Bridge]
e|-----|-----|-----|-----|----------------------------------------------------|
B|-----|-----|-----|-----|----------------------------------------------------|
G|--5--|--7--|-----|--8--|----------------------------------------------------|
D|--5--|--7--|--3--|--8--|----------------------------------------------------| (x7)
A|--3--|--5--|--3--|--6--|----------------------------------------------------|
E|-----|-----|--1--|-----|----------------------------------------------------|

[Verse]
e|----------|----------------------------------------------------------------|
B|----------|----------------------------------------------------------------|
G|----------|----------------------------------------------------------------|
D|----------|----------------------------------------------------------------|  (x6)
A|-3-3-5b-3-|-6-6-6b-5-------------------------------------------------------|
E|----------|----------------------------------------------------------------|
   
   Sixteen psyche
   Sixteen psyche
   Coma tail quivering
   I knew all along 

[Chorus/Outro]
e|-----------------|-----------------|---------------------------------------|
B|-----------------|-----------------|---------------------------------------|
G|-8-8-8-8-8-8-8-8-|-5-5-5-5-5-5-5-5-|---------------------------------------|
D|-8-8-8-8-8-8-8-8-|-5-5-5-5-5-5-5-5-|-3-3-3-3-3-3-3-3-----------------------|  (x6)
A|-6-6-6-6-6-6-6-6-|-3-3-3-3-3-3-3-3-|-3-3-3-3-3-3-3-3-----------------------|
E|-----------------|-----------------|-1-1-1-1-1-1-1-1-----------------------|

   "I can't," she said
   I'd save you
   "I can't," she said
   "I'd save you but the world's bent," she said
   I'd save you
   "I can't"
   

************************************

| b   Bend

************************************

            
            
Suggest correction
Creating personal tab
Creating personal tab
You can edit any tab online and save it as your Personal.

You can edit, replace or remove any tab part or add personal notes – all changes will be seen only by you.

Personal tabs can be accessed anytime from any device, even offline.
Learn more »
Give kudos to tab author, rate the tab!
1 2 3 4 5
comments
print report bad tab
4 comments total. Showing first comments.
0 reply
Geormajesty 10 Aug 19, 2017 07:47 AM

Good tab, think it's in D standard though rather than E based on the video.

0 reply
rockstar256 280 Aug 21, 2017 04:12 PM

Tab is correct but i think its in C# standard

+1 reply
bernardo.g.vaz 10 Aug 24, 2017 10:58 PM

yeah i think this tab is all wrong, i would say tunning is C standard (or D/C# as mentioned, but for sure not in E)and im not sure even the notes translate

chelsea wolfe usualy plays in D standard but i think she went a step down this album as troy van leeuwen is involved and he played in C# on APC and now C on QOTSA (of course not exclusively, but it was their thing...)

guest
You may want to rate the tab now too:
select rating
Wanna post a correction for this tab? Suggest correction