Oops, an error
Loading. Please wait.

Mirror Mirror bass

260 views 3 this week
no commentswrite comment
1 2 3 4 5
2 more votes to show rating
add to favorites
×
Save as Personal and add changes to this tab that will be seen only by you. Learn more ›
×
You can save this tab as Personal to edit and correct it or add notes. All changes will be seen only by you. Learn more »
launch autoscroll
font size
0
reset
guitar tuner
edit
Autoscroll
slow
fast
+/-
esc
set tempo
stop
TUNING: DROP D


[Intro]

(0:05)

G|---------------------------------------------------------------------------|
D|---------------------------------------------------------------------------|
A|---------------------------------------------------------------------------|
D|-0-0---0-0---0-0---3-3--3--------------------------------------------------|

G|---------------------------------------------------------------------------|
D|--------------------1-----------2-----------1------------------------------|
A|-0-3-0-5------0-3-0-------0-3-0-------0-3-0--------------------------------|
D|----------0-0---------0-0---------0-0---------0-0--------------------------|

G|---------------------------------------------------------------------------|
D|-------------------1-----------2-------------------------------------------|
A|-0-3-0-5-----0-3-0-------0-3-0-------0-3-0---------------------------------|
D|---------0-0---------0-0---------0-0-------3-3---3-3-3---------------------|


[Verse]

G|---------------------------------------------------------------------------|
D|---------------------------------------------------------------------------|
A|-------1-1-1-----1-1-1-----------------------------------------------------|
D|-5-5-5-------3-3-------1-1---2-2-2-3-5-5---3-5-3-5-3--3-5-5----------------|

G|---------------------------------------------------------------------------|
D|---------------------------------------------------------------------------|
A|-------1-1-1-----1-1-1-----------------------------------------------------|
D|-5-5-5-------3-3-------1-1---2-2-2-3-5--4--5-3-----------------------------|


[Bridge] 

G|---------------------------------------------------------------------------|
D|---------------------------------------------------------------------------|
A|------------------------------------------3-3------------------------------|
D|-0-0-0-0-0---0-0---0-0---0-0-0-0-0--0-0-0----------------------------------|

G|---------------------------------------------------------------------------|
D|---------------------------------------------------------------------------|
A|-----------------------------------3-3-3-3---------------------------------|
D|-0-0-0-0-0---0-0---0-0---0-0-0-0-0-----------------------------------------|


[Chorus]

G|---------------------------------------------------------------------------|
D|-------------------------------------1-----------2------------1------------|
A|------------------0-3-0-5------0-3-0-------0-3-0--------0-3-0--------0-3-0-|
D|-3----2-1----5------------0-0----------0-0---------0-0----------0-0--------|

G|---------------------------------------------------------------------------|
D|--------------------------------------1-----------2------------------------|
A|------------------0-3-0-5-------0-3-0-------0-3-0--------0-3-0-------------|
D|-3----2-1----5------------0-0----------0-0---------0-0----------3-3--3-----|


[Verse]

G|---------------------------------------------------------------------------|
D|---------------------------------------------------------------------------|
A|-------1-1-1-----1-1-1-----------------------------------------------------|
D|-5-5-5-------3-3-------1-1---2-2-2-3-5-5---3-5-3-5-3--3-5-5----------------|

G|---------------------------------------------------------------------------|
D|---------------------------------------------------------------------------|
A|-------1-1-1-----1-1-1-----------------------------------------------------|
D|-5-5-5-------3-3-------1-1---2-2-2-3-5--4--5-3-----------------------------|


[Bridge] 

G|---------------------------------------------------------------------------|
D|---------------------------------------------------------------------------|
A|------------------------------------------3-3------------------------------|
D|-0-0-0-0-0---0-0---0-0---0-0-0-0-0--0-0-0----------------------------------|

G|---------------------------------------------------------------------------|
D|---------------------------------------------------------------------------|
A|-----------------------------------3-3-3-3---------------------------------|
D|-0-0-0-0-0---0-0---0-0---0-0-0-0-0-----------------------------------------|


[Chorus]

G|---------------------------------------------------------------------------|
D|-------------------------------------1-----------2------------1------------|
A|------------------0-3-0-5------0-3-0-------0-3-0--------0-3-0--------0-3-0-|
D|-3----2-1----5------------0-0----------0-0---------0-0----------0-0--------|

G|---------------------------------------------------------------------------|
D|--------------------------------------1-----------2------------1-----------|
A|------------------0-3-0-5-------0-3-0-------0-3-0--------0-3-0-------------|
D|-3----2-1----5------------0-0----------0-0---------0-0------------0-0------|

G|---------------------------------------------------------------------------|
D|----------------------1-------------2--------------------------------------|
A|-0-3-0-5-------0-3-0---------0-3-0----------0-3-0--------------------------|
D|----------0-0------------0-0-----------0-0----------3-3--3-3---------------|


[Breakdown]  

(Don't want your sympathy...)

G|---------------------------------------------------------------------------|
D|---------------------------------------------------------------------------|
A|---------------------------------------------------------------------------|
D|-1----1-2----2-3----3-4---------------1---2---3---4------------------------|


G|---------------------------------------------------------------------------|
D|---------------------------------------------------------------------------|
A|---------------------------------------------------------------------------|
D|-1-1--1--1-1---1-1--1--1-1----2-2--2--2-2---2-2--2--2-2--------------------|


G|---------------------------------------------------------------------------|
D|---------------------------------------------------------------------------|
A|---------------------------------------------------------------------------|
D|-3-3--3--3-3---3-3--3--3-3----4-4--4--4-4---4-4--4--4-4--------------------|


G|---------------------------------------------------------------------------|
D|---------------------------------------------------------------------------|
A|---------------------------------------------------------------------------|
D|-1-1--1-1-1--1-2-2--2-2-2--2-3-3--3-3-3--3-4-4--4-4-4--5-------------------|



[Guitar solo/Chorus/Outro]
 
G|---------------------------------------------------------------------------|
D|---------------------------------------------------------------------------|
A|---------------1-----------------------------------------------------------|
D|-5-5-5-5-5-5-5---3--5-5-5-5-5-5-5-3-3--------------------------------------|

G|---------------------------------------------------------------------------|
D|---------------------------------------------------------------------------|
A|---------------1--------------------5-5-5----------------------------------|
D|-5-5-5-5-5-5-5---3--5-5-5-5-5-5-5------------------------------------------|

G|---------------------------------------------------------------------------|
D|-------------------------------------1-----------2------------1------------|
A|------------------0-3-0-5------0-3-0-------0-3-0--------0-3-0--------0-3-0-|
D|-3----2-1----5------------0-0----------0-0---------0-0----------0-0--------|

G|---------------------------------------------------------------------------|
D|-------------------------------------1-----------2------------1------------|
A|------------------0-3-0-5------0-3-0-------0-3-0--------0-3-0--------0-3-0-|
D|-3----2-1----5------------0-0----------0-0---------0-0----------0-0--------|

G|---------------------------------------------------------------------------|
D|-------------------------------------1-----------2------------1------------|
A|------------------0-3-0-5------0-3-0-------0-3-0--------0-3-0--------0-3-0-|
D|-3----2-1----5------------0-0----------0-0---------0-0----------0-0--------|

G|---------------------------------------------------------------------------|
D|-------------------------------------1-----------2------------1------------|
A|------------------0-3-0-5------0-3-0-------0-3-0--------0-3-0--------------|
D|-3----2-1----5------------0-0----------0-0---------0-0----------0-0--------|

G|---------------------------------------------------------------------------|
D|-------------------1-----------2-------------------------------------------|
A|-0-3-0-5-----0-3-0-------0-3-0-------0-3-0---------------------------------|
D|---------0-0---------0-0---------0-0-------3-3---3-3-0---------------------|

            
            
Suggest correction
Creating personal tab
Creating personal tab
You can edit any tab online and save it as your Personal.

You can edit, replace or remove any tab part or add personal notes – all changes will be seen only by you.

Personal tabs can be accessed anytime from any device, even offline.
Learn more »
Give kudos to tab author, rate the tab!
1 2 3 4 5
comments
print report bad tab
guest
You may want to rate the tab now too:
select rating
Wanna post a correction for this tab? Suggest correction