Oops, an error
Loading. Please wait.

Joyride Omen bass

1,591 views 24 this week
no commentswrite comment
1 2 3 4 5
x 4
add to favorites
×
Save as Personal and add changes to this tab that will be seen only by you. Learn more ›
×
You can save this tab as Personal to edit and correct it or add notes. All changes will be seen only by you. Learn more »
launch autoscroll
font size
0
reset
guitar tuner
edit
Autoscroll
slow
fast
+/-
esc
set tempo
stop
Joyride (Omen) by Chevelle
From album The North Corridor (2016) 
Written by Pete Loeffler, Sam Loeffler and Dean Bernardini
All rights belong to their respective owners

Tabbed by Jaakko Karppinen


Tuning: Drop C (CGCF)

Legend:   x = muted note   . = accent note   R = rest   \ = slide down   / = slide up   < > = harmonic

Sorry for the confusing layout on the main riff. I thought it was very important to make it fit with the
beat pattern to make it easier to learn. So no bass with 150 frets required :D enjoy!


Intro
|------------------------------------------------------------------|
|------------------------------------------------------------------|
|-0-120-0-120-0-150-0-120-0-100-0-0-8-0-0-8-0-0-8-0-7-0-0-7-8-7-0--|
|------------------------------------------------------------------|
  1   +   2   +   3   +   4   +   1   +   2   +   3   +   4   +   

|------------------------------------------------------------------|
|------------------------------------------------------------------|
|-0-120-0-120-0-150-0-120-0-100-0-0-8-0-0-8-0-0-8-0-7-0-0-7-107-0--|
|------------------------------------------------------------------|
  1   +   2   +   3   +   4   +   1   +   2   +   3   +   4   +   


Verse 1
||--------------------------------------------------------------------|
||-o------------------------------------------------------------------|
||-o-0-120-0-120-0-150-0-120-0-100-0-0-8-0-0-8-0-0-8-0-7-0-0-7-8-7-0--|
||--------------------------------------------------------------------|
     1   +   2   +   3   +   4   +   1   +   2   +   3   +   4   +   

|--------------------------------------------------------------------||
|------------------------------------------------------------------o-||
|-0-120-0-120-0-150-0-120-0-100-0-0-8-0-0-8-0-0-8-0-7-0-0-7-107-0--o-||
|--------------------------------------------------------------------||
  1   +   2   +   3   +   4   +   1   +   2   +   3   +   4   +   


Bridge
|------------------------------------------------------------------|
|------------------------------------------------------------------|
|-120-0-0-120-0-150-0-120-0-100-0-0-8-0-0-8-0-0-8-0-7-0-0-7-8-7-0--|
|------------------------------------------------------------------|
  1   +   2   +   3   +   4   +   1   +   2   +   3   +   4   +   


Verse 2
||--------------------------------------------------------------------|
||-o------------------------------------------------------------------|
||-o-0-120-0-120-0-150-0-120-0-100-0-0-8-0-0-8-0-0-8-0-7-0-0-7-8-7-0--|
||--------------------------------------------------------------------|
     1   +   2   +   3   +   4   +   1   +   2   +   3   +   4   +   

|--------------------------------------------------------------------||
|------------------------------------------------------------------o-||
|-0-120-0-120-0-150-0-120-0-100-0-0-8-0-0-8-0-0-8-0-7-0-0-7-107-0--o-||
|--------------------------------------------------------------------||
  1   +   2   +   3   +   4   +   1   +   2   +   3   +   4   +   


Chorus 1
|------------------------------------------------------------------|
|------------------------------------------------------------------|
|---------------.-------------------------------.------------------|
|-7-------R---7-7---7-7---R-------7-------R---7-7---7-7---R---x-x--|
  1   +   2   +   3   +   4   +   1   +   2   +   3   +   4   +  

|------------------------------------------------------------------|
|------------------------------------------------------------------|
|---------------.-------------------------------.------------------|
|-7-------R---7-7---7-7---R---x-x-7-------R---7-7---7-7---7/15\----|
  1   +   2   +   3   +   4   +   1   +   2   +   3   +   4   +  

|------------------------------------------------------------------|
|------------------------------------------------------------------|
|---------------.-------------------------------.------------------|
|-7-------R---7-7---7-7---R-------7-------R---7-7---7-7---R--------|
  1   +   2   +   3   +   4   +   1   +   2   +   3   +   4   +  

|------------------------------------------------------------------|
|------------------------------------------------------------------|
|---------------.-------------------------------.------------------|
|-7-------R---7-7---7-7---R---x-x-7-------R---7-7---7-7--(7)-/-12--|
  1   +   2   +   3   +   4   +   1   +   2   +   3   +   4   +  


Bridge
|------------------------------------------------------------------|
|------------------------------------------------------------------|
|-0-120-0-120-0-150-0-120-0-100-0-0-8-0-0-8-0-0-8-0-7-0-0-7-8-7-0--|
|------------------------------------------------------------------|
  1   +   2   +   3   +   4   +   1   +   2   +   3   +   4   +   


Verse 3
||--------------------------------------------------------------------|
||-o------------------------------------------------------------------|
||-o-0-120-0-120-0-150-0-120-0-100-0-0-8-0-0-8-0-0-8-0-7-0-0-7-8-7-0--|
||--------------------------------------------------------------------|
     1   +   2   +   3   +   4   +   1   +   2   +   3   +   4   +   

|--------------------------------------------------------------------||
|------------------------------------------------------------------o-||
|-0-120-0-120-0-150-0-120-0-100-0-0-8-0-0-8-0-0-8-0-7-0-0-7-107-0--o-||
|--------------------------------------------------------------------||
  1   +   2   +   3   +   4   +   1   +   2   +   3   +   4   +   


Chorus 2
|------------------------------------------------------------------|
|------------------------------------------------------------------|
|---------------.-------------------------------.------------------|
|-7-------R---7-7---7-7---R-------7-------R---7-7---7-7---R---x-x--|
  1   +   2   +   3   +   4   +   1   +   2   +   3   +   4   +  

|------------------------------------------------------------------|
|------------------------------------------------------------------|
|---------------.-------------------------------.------------------|
|-7-------R---7-7---7-7---R---x-x-7-------R---7-7---7-7---7/15\----|
  1   +   2   +   3   +   4   +   1   +   2   +   3   +   4   +  

|------------------------------------------------------------------|
|------------------------------------------------------------------|
|---------------.-------------------------------.------------------|
|-7-------R---7-7---7-7---R-------7-------R---7-7---7-7---R---x-x--|
  1   +   2   +   3   +   4   +   1   +   2   +   3   +   4   +  

|------------------------------------------------------------------|
|------------------------------------------------------------------|
|---------------.-------------------------------.------------------|
|-7-------R---7-7---7-7---R-------7-------R---7-7---7-7---7---\----|
  1   +   2   +   3   +   4   +   1   +   2   +   3   +   4   +  


Verse 4
|------------------------------------------------------------------|
|------------------------------------------------------------------|
|------------------------------------------------------------------|
|-0-2---------R-------------------0-2-----R------------------------|
  1   +   2   +   3   +   4   +   1   +   2   +   3   +   4   +  

|----------------------------------------------------<7>-----------|
|----------------------------------------------------<7>-----------|
|------------------------------------------------------------------|
|-0-2-----------------------------0-2---R--------------------------|
  1   +   2   +   3   +   4   +   1   +   2   +   3   +   4   +  

|------------------------------------------------------------------|
|------------------------------------------------------------------|
|------------------------------------------------------------------|
|-2-2-2-2-2-2-2-2-2-2-2-2-2-2-2-2-2-2-2-2-2-2-2-2-2-2-2-2-2-2-2-2--|
  1   +   2   +   3   +   4   +   1   +   2   +   3   +   4   +  

|------------------------------------------------------------------|
|------------------------------------------------------------------|
|------------------------------------------------------------------|
|-2-2-2-2-2-2-2-2-2-2-2-2-2-2-2-2-2-2-2-2-2-2-2-2-2-2-2-2-5-5-5----|
  1   +   2   +   3   +   4   +   1   +   2   +   3   +   4   +  


Bridge
|------------------------------------------------------------------|
|------------------------------------------------------------------|
|------------------------------------------------------------------|
|-7-----\-----R----------------------------------------------------|
  1   +   2   +   3   +   4   +   1   +   2   +   3   +   4   +  


Rest for one bar


Interlude
||----------------------------------------------------------------------||
||-o------------------------------------------------------------------o-||
||-o------------------------------------------------------------------o-|| 4X
||---/-7-----7---7-10----7-------5---3-------3---3-3---2-2-2-2-2-2-2----||
     1   +   2   +   3   +   4   +   1   +   2   +   3   +   4   +  


Chorus 3 / Outro
|------------------------------------------------------------------|
|------------------------------------------------------------------|
|---------------.-------------------------------.------------------|
|-7-------R---7-7---7-7---R-------7-------R---7-7---7-7---R--------|
  1   +   2   +   3   +   4   +   1   +   2   +   3   +   4   +  

|------------------------------------------------------------------|
|------------------------------------------------------------------|
|---------------.--------------------------------------------------|
|-7-------R---7-7---7-7---R-------7-------R---7-7---7--/--15--\----|
  1   +   2   +   3   +   4   +   1   +   2   +   3   +   4   +  

|------------------------------------------------------------------|
|------------------------------------------------------------------|
|---------------.-------------------------------.------------------|
|-7-------R---7-7---7-7---\-------7-------R---7-7---7-7---R--------|
  1   +   2   +   3   +   4   +   1   +   2   +   3   +   4   +  

|------------------------------------------------------------------|
|------------------------------------------------------------------|
|---------------.-------------------------------.------------------|
|-7-------R---7-7---7-7---R-------7-------R---7-7---7-7-/-15----\--|
  1   +   2   +   3   +   4   +   1   +   2   +   3   +   4   +  

|------------------------------------------------------------------|
|------------------------------------------------------------------|
|---------------.-------------------------------.------------------|
|-7-------R---7-7---7-7---\-------7-------R---7-7---7-7---7--------|
  1   +   2   +   3   +   4   +   1   +   2   +   3   +   4   +  

|------------------------------------------------------------------|
|------------------------------------------------------------------|
|---------------.-------------------------------.------------------|
|-7-------R---7-7---7-7---7---R---7-------R---7-7---7-7---R---x-x--|
  1   +   2   +   3   +   4   +   1   +   2   +   3   +   4   +  

            
            
Suggest correction
Creating personal tab
Creating personal tab
You can edit any tab online and save it as your Personal.

You can edit, replace or remove any tab part or add personal notes – all changes will be seen only by you.

Personal tabs can be accessed anytime from any device, even offline.
Learn more »
comments
print report bad tab
guest
You may want to rate the tab now too:
select rating
Wanna post a correction for this tab? Suggest correction