Oops, an error
Loading. Please wait.

Saferwaters tab

version 1
version 1

Whole song

26,355 views 36 this week
11 commentsread comments
1 2 3 4 5
x 17
add to favorites
×
Save as Personal and add changes to this tab that will be seen only by you. Learn more ›
×
You can save this tab as Personal to edit and correct it or add notes. All changes will be seen only by you. Learn more »
launch autoscroll
font size
0
reset
how to read this tab
guitar tuner
edit
Autoscroll
slow
fast
+/-
esc
set tempo
stop
Artist: Chevelle
Song: Saferwaters
Tuning: B F# B E G# C# (Drop B)
Key: tr = tremolo pick
    / \= slides

Intro/Pre-Chorus
C#--------------------------------------------------------------------|
G#--------------------------------------------------------------------|
E---------------------------------------------------------------------|
B--3-3-3-3----------3-3-3-3----------0-0-0-0----------0-0-0-0---------|
F#-3-3-3-3/7-7-7-7--3-3-3-3/7-7-7-7--0-0-0-0/7-7-7-7--0-0-0-0/7-7-7-5-|
B--3-3-3-3----------3-3-3-3----------0-0-0-0----------0-0-0-0---------|

C#-----------------------------------------------------------------------|
G#-----------------------------------------------------------------------|
E------------------------------------------------------------------------|
B--3-3-3-3----------3-3-3-3----------0-0-0-0-----------------------------|
F#-3-3-3-3/7-7-7-7--3-3-3-3/7-7-7-7--0-0-0-0/7-7-7-7-8-8-8-8-10-10-10-10-|
B--3-3-3-3----------3-3-3-3----------0-0-0-0-----------------------------|

Verse/Outro
C#-----0-------0-------0-------0----|
G#--1-1-1-1-1-1-1-1-1-1-1-1-1-1-1-1-|
E-----------------------------------|
B--3-3---3-3-3---3-0-0---0----------|
F#-------------------------0-0---0--|
B-----------------------------------|

Chorus
C#-------------------------|
G#-------------------------|
E--------------------------|
B--3-----7-----0-----8-----|
F#-3 16x-7 16x-0 16x-8 16x-|
B--3-----7-----0-----8-----|

Solo
C#-------------------------------------------------|
G#-------------------------------------------------|
E--21-21-21-21\19-19-19-19-19-19-19-17-17-17-17-14-|
B--------------------------------------------------| 2x
F#-------------------------------------------------|
B--------------------------------------------------|

C#-------------12----12----12----12----12-------------|
G#---------------13----13----13----13----13-----------|
E--14-14/17-14-----14----14----14----14----14-14\12tr-|
B-----------------------------------------------------|
F#----------------------------------------------------|
B-----------------------------------------------------|

            
            
Suggest correction
Creating personal tab
Creating personal tab
You can edit any tab online and save it as your Personal.

You can edit, replace or remove any tab part or add personal notes – all changes will be seen only by you.

Personal tabs can be accessed anytime from any device, even offline.
Learn more »
comments
print report bad tab
11 comments total. Showing first comments.
0 reply
365_days_gone 4,297 Mar 17, 2007 08:31 AM

And how did you hear this song already???

0 reply
OpenMindTrip 10 Mar 20, 2007 09:18 PM

Great tab, but the Verse/Outro doesn't sound right. It sounds better like this:

Verse/Outro
C#-----0-------0-------0-------0----|
G#--1-1-1-1-1-1-1-1-1-1-1-1-1-1-1-1-|
E-----------------------------------|
B--3-3---3-3-3---3-0-0---0----------|
F#-------------------------0-0---0--|
B-----------------------------------|

... which still may be wrong, but sounds much better

0 reply
OpenMindTrip 10 Mar 20, 2007 09:52 PM

Here's a different fingering for the Verse/Outro:

Verse/Outro
C#----------------------------------|
G#-----5-------5-------5-------5----|
E---5-5-5-5-5-5-5-5-5-5-5-5-5-5-5-5-|
B--3-3---3-3-3---3-0-0---0----------|
F#-------------------------0-0---0--|
B-----------------------------------|

guest
You may want to rate the tab now too:
select rating
Wanna post a correction for this tab? Suggest correction