Oops, an error
Loading. Please wait.
We have an official Sleep Apnea tab made by UG professional guitarists. Check out the tab »
×
14,380 views 3 this week
5 commentsread comments
1 2 3 4 5
x 5
add to favorites
×
Save as Personal and add changes to this tab that will be seen only by you. Learn more ›
×
You can save this tab as Personal to edit and correct it or add notes. All changes will be seen only by you. Learn more »
launch autoscroll
font size
0
reset
how to read this tab
guitar tuner
edit
Autoscroll
slow
fast
+/-
esc
set tempo
stop
Author
Tuning:
Db ab db gb bb eb

[Intro]
Eb|---|-----------------------------|
Bb|---|-----------------------------|
Gb|---|-----------------------------|
db|---|-----------------------------|
Ab|---|-----------------------------|
Db|-10[-0-0-12-0-0-10-0-0-15-0-0-10-|

[pre-verse/verse]                   [pre-chorus]
Eb|---------------------------------|------|
Bb|---------------------------------|------|
Gb|---------------------------------|------|
db|---------------------------------|---10-|
Ab|---------------------------------|---10-|
Db|-0--0-0-12-15-12-0--0-0-12-13-12-|-0-10-|

[Chorus]
Eb|-------------------------------------------------------------------------|
Bb|-------------------------------------------------------------------------|
Gb|-7-7-7-7-7-7-7-7---------------------------------------------------------|
db|-7-7-7-7-7-7-7-7-8-8-8-8-8-8-8-8-3-3-3-3-3-3-3-3-10-10-10-10-10-10-10-10-|
Ab|-5-5-5-5-5-5-5-5-8-8-8-8-8-8-8-8-3-3-3-3-3-3-3-3-10-10-10-10-10-10-10-10-|
Db|-----------------8-8-8-8-8-8-8-8-3-3-3-3-3-3-3-3-10-10-10-10-10-10-10-10-|

[Interlude]
Eb|-------------------------------------------------------|
Bb|-------------------------------------------------------|
Gb|-------------------------------------------------------|
db|---------------------------------------------------3-8-|
Ab|---------------------------------------------------3-8-|
Db|-0--0-0-12-15-12-0--0-0-12-13-12-0--0-0-12-15-12-0-3-8-|

Eb|----------------------------|--------------------------------------------------------------|
Bb|----------------------------|--------------------------------------------------------------|
Gb|----------------------------|--------------------------------------------------------------|
db|-8-7-5-7-3-10-----10-----10-|-8-7-5-7-5-3-10-----12-----10-----15-----10-----12-----10-----|
Ab|-8-7-5-7-3-10-----10-----10-|-8-7-5-7-5-3-10-----12-----10-----15-----10-----12-----10-----|
Db|-8-7-5-7-3-10-0-0-10-0-0-10-|-8-7-5-7-5-3-10-0-0-12-0-0-10-0-0-15-0-0-10-0-0-12-0-0-10-0-0-|

Eb|------------|
Bb|------------|
Gb|------------|
db|-15-----10-0[
Ab|-15-----10-0[
Db|-15-0-0-10-0[

Eb|----10---10------10-----------10---10------10---12---|
Bb|--10--10---10--10--10---10--10--10---10--10----------|
Gb|-7------------7-------7----7------------7-----7----7-|
db|-----------------------------------------------------|
Ab|-----------------------------------------------------|
Db|-----------------------------------------------------|

[Outro]
Eb|---|
Bb|---|
Gb|---|
db|-0-|
Ab|-0-|
Db|-0-|

            
            
Suggest correction
Creating personal tab
Creating personal tab
You can edit any tab online and save it as your Personal.

You can edit, replace or remove any tab part or add personal notes – all changes will be seen only by you.

Personal tabs can be accessed anytime from any device, even offline.
Learn more »
comments
print report bad tab
5 comments total. Showing first comments.
-1 reply
Withateethuh 60 Oct 11, 2009 08:08 AM

Very accurate for the most part. I think there is an extra layer of notes behind the clean part of the bridge, but I'm not sure what they are.

0 reply
Star_powa 10 Oct 19, 2009 01:11 PM

I think the chorus sounds better like this:

eb|-----------------------------------------------------------------|
Bb|-----------------------------------------------------------------|
Gb|-------------------------------------------------5-5-5-5-5-5-5-5-|
Db|-7-7-7-7-7-7-7-7-3-3-3-3-3-3-3-3-3-3-3-3-3-3-3-3-5-5-5-5-5-5-5-5-|
Ab|-5-5-5-5-5-5-5-5-1-1-1-1-1-1-1-1-3-3-3-3-3-3-3-3-3-3-3-3-3-3-3-3-|
Db|-0-0-0-0-0-0-0-0-----------------3-3-3-3-3-3-3-3-----------------|

But I guess your way works too.

0 reply
metalslayer09 749 Oct 21, 2009 11:23 AM

yeah actually thats exactly what I thought first but I changed my mind to what I've got written after watching one of their live videos. basically same notes but different spots

guest
You may want to rate the tab now too:
select rating
Wanna post a correction for this tab? Suggest correction