Oops, an error
Loading. Please wait.

Sma tab

version 1
version 1

Whole song

2,839 views 18 this week
1 commentread comment
1 2 3 4 5
x 3
add to favorites
×
Save as Personal and add changes to this tab that will be seen only by you. Learn more ›
×
You can save this tab as Personal to edit and correct it or add notes. All changes will be seen only by you. Learn more »
launch autoscroll
font size
0
reset
how to read this tab
guitar tuner
edit
Autoscroll
slow
fast
+/-
esc
set tempo
stop
Author
Difficulty
Chevelle-SMA
Album- Point #1
TUNING: Dropped D
tabbed out by caston adams
PM=Palm muted
All rights reserved. under no circumstances that other websites can use this tab as their own.
Okay so this is my first tab, so please give constructive criticism and dont bash me 
hateful comments if there is something wrong with the tab
enjoy!

INTRO
(x2) Clean
E----------------------------|
B----------------------------|
G----------------------------|
D----------------------------|
A----------------------------|
D-0-0-0-0-3-3-3-3-3-3-3-3----|b5

(1x)Distorted
E------|
B------|
G----5-|
D-0--x-
A-0--3-|
D-0----|

(x4) Distorted
E--------------------------------------------------------------|
B--------------------------------------------------------------|
G--------------------------------------------------------------|
D-3-2-0-3-2-0-3-2-0-3-2-0-0--3-2-0-3-2-0-3-2-0-3-2-0-3-5-5-5-5-|
A-3-2-0-3-2-0-3-2-0-3-2-0-0--3-2-0-3-2-0-3-2-0-3-2-0-3-5-5-5-5-|
D-3-2-0-3-2-0-3-2-0-3-2-0-0--3-2-0-3-2-0-3-2-0-3-2-0-3-5-5-5-5-|

(x2) Clean
E----------------------------|
B----------------------------|
G----------------------------|
D-0-0-X-7-7-8-8-8-8-10-10-10-|
A-0-0-X-7-7-8-8-8-8-10-10-10-|
D-0-0-X-7-7-8-8-8-8-10-10-10-|

(x1) Clean
E--------------------------------------------|
B--------------------------------------------|
G--------------------------------------------|
D-0-0-X-7-7-8-8-8-8-10-10-10-5-5-5-5-3-3-3-3-|
A-0-0-X-7-7-8-8-8-8-10-10-10-5-5-5-5-3-3-3-3-|
D-0-0-X-7-7-8-8-8-8-10-10-10-5-5-5-5-3-3-3-3-|

VERSE
(x3) Distorted
E----------------------------------------------------------------------------------|
B----------------------------------------------------------------------------------|
G----------------------------------------------------------------------------------|
D-0-0-X-7-7-8-8-8-8-10-10-10-0-0-X-7-7-8-8-8-8-10-10-10-0-0-X-7-7-8-8-8-8-10-10-10-|
A-0-0-X-7-7-8-8-8-8-10-10-10-0-0-X-7-7-8-8-8-8-10-10-10-0-0-X-7-7-8-8-8-8-10-10-10-|
D-0-0-X-7-7-8-8-8-8-10-10-10-0-0-X-7-7-8-8-8-8-10-10-10-0-0-X-7-7-8-8-8-8-10-10-10-|

 pm pm pm pm pm pm
E-----------------|
B-----------------|
G-----------------|
D-5-5-5-5-3-3-3-3-|
A-5-5-5-5-3-3-3-3-|
D-5-5-5-5-3-3-3-3-|

VERSE 2
(x3) Distorted

E-------------------------|
B-------------------------|
G-------------------------|
D-7-7x--6-6x-5-5x---3(x16-|
A-7-7x--6-6x-5-5x---3(x16-|
D-7-7x--6-6x-5-5x---3(x16-|

PRECHORUS

(x1) Distorted
E------------------|
B------------------|
G------------------|
D-x-x--x-x--x-x--x-|
A-x-x--x-x--x-x--x-|
D-x-x--x-x--x-x--x-|


E---------------------------------|
B---------------------------------|
G---------------------------------|
D-4-4-4-4-4-4-4-4-5-4-4-4-5-4-4-4-|
A-4-4-4-4-4-4-4-4-5-4-4-4-5-4-4-4-|
D-4-4-4-4-4-4-4-4-5-4-4-4-5-4-4-4-|

CHORUS

(x8)
E---------------------------------------------------------|
B---------------------------------------------------------|
G---------------------------------------------------------|
D-0-0-0-0-0-0-0-0-0-0-0-0-0-0-0-0-4-4-4-4-5-4-4-4-5-4-4-4-|
A-0-0-0-0-0-0-0-0-0-0-0-0-0-0-0-0-4-4-4-4-5-4-4-4-5-4-4-4-|
D-0-0-0-0-0-0-0-0-0-0-0-0-0-0-0-0-4-4-4-4-5-4-4-4-5-4-4-4-|

If you know the song you can figure out the rest...i have all of the parts tabbed out =)

            
            
Suggest correction
Creating personal tab
Creating personal tab
You can edit any tab online and save it as your Personal.

You can edit, replace or remove any tab part or add personal notes – all changes will be seen only by you.

Personal tabs can be accessed anytime from any device, even offline.
Learn more »
Give kudos to tab author, rate the tab!
1 2 3 4 5
comments
print report bad tab
1 comment total.
0 reply
dogtin1234 10 Apr 24, 2008 04:16 PM

Well, you sounded correct with the song when I listened and followed along with your tab, havent tried it out for my slef yet though, I'll let you know for sure when I have tried it my self.

guest
You may want to rate the tab now too:
select rating
Wanna post a correction for this tab? Suggest correction