Oops, an error
Loading. Please wait.

The Fad bass

1,681 views 1 this week
1 commentread comment
1 2 3 4 5
1 last vote to show rating
add to favorites
×
Save as Personal and add changes to this tab that will be seen only by you. Learn more ›
×
You can save this tab as Personal to edit and correct it or add notes. All changes will be seen only by you. Learn more »
launch autoscroll
font size
0
reset
guitar tuner
edit
Autoscroll
slow
fast
+/-
esc
set tempo
stop
Author
Chevelle
The Fad
Vena Sera

Tuning: Bb F Bb Eb (low to high)


Intro (with slight distortion)
Eb|-------------------------------------------|
Bb|-------------------------------------------|
F |-77-77-77-77-7777-77-77-77-77-7777---------|
Bb|-------------------------------------------|

Prechorus (0:28)
Eb|-------------------------------------------|
Bb|-99999999-999999910-99999999-9999999-------|
F |-------------------------------------------|
Bb|-------------------------------------------|

Chorus x2
Eb|-------------------------------------------|
Bb|-------------------------------------------|
F |-------3-3-3-7-7-7-8-8-8-10-10-10----------|
Bb|-7-7-7-------------------------------------|

Eb|-------------------------------------------|
Bb|-------------------------------------------|
F |-------3-3-3-7-7-7-7-7-7-7-7-7-7-----------|
Bb|-7-7-7-------------------------------------|

Post Chorus x4
Eb|-------------------------------------------|
Bb|-------------------------------------------|
F |-------------------------------------------|
Bb|-22-22-22-22-2320--------------------------|

Back to Intro (Slight Distortion)
Eb|-------------------------------------------|
Bb|-------------------------------------------|
F |-77-77-77-77-7777-77-77-77-77-7777---------|
Bb|-------------------------------------------|

Prechorus
Eb|-------------------------------------------|
Bb|-99999999-999999910-99999999-9999999-------|
F |-------------------------------------------|
Bb|-------------------------------------------|

Chorus x2
Eb|-------------------------------------------|
Bb|-------------------------------------------|
F |-------3-3-3-7-7-7-8-8-8-10-10-10----------|
Bb|-7-7-7-------------------------------------|

Eb|-------------------------------------------|
Bb|-------------------------------------------|
F |-------3-3-3-7-7-7-7-7-7-7-7-7-7-----------|
Bb|-7-7-7-------------------------------------|

Bridge
Eb|-------------------------------------------|
Bb|-------------------------------------------|
F |-------------------------------------------|
Bb|-22-22-22-22-22-2--(rest)------------------|

Eb|-------------------------------------------|
Bb|-------------------------------------------|
F |-------------------------------------------|
Bb|-22-22-22-22-22-2--(rest)------------------|

Eb|-------------------------------------------|
Bb|-------------------------------------------|
F |-------------------------------------------|
Bb|-22-22-22-22-22-2--2023202023202023--------|

Eb|----------------------------------------------------------------|
Bb|----------------------------------------------------------------|
F |--------------------------------------------------------------7-|
Bb|-22-22-22-22-22-2--202320202320202320202320202320202320202320---|

Eb|-------------------------------------------|
Bb|-------------------------------------------|
F |-202320202320202320202320-5-5-5-0-0-0------|
Bb|-------------------------------------------|

Eb|-------------------------------------------|
Bb|-------------------------------------------|
F |-202320202320202320202320-5-5-5-8-8-8------|
Bb|-------------------------------------------|

Eb|-------------------------------------------|
Bb|-------------------------------------------|
F |-202320202320202320202320-5-5-5-0-0-0------|
Bb|-------------------------------------------|

Eb|-------------------------------------------|
Bb|-------------------------------------------|
F |-202320202320202320202320-5-5-5-0-0-0------|
Bb|-------------------------------------------|

Eb|-------------------------------------------|
Bb|-------------------------------------------|
F |-------------------------------------------|
Bb|-2xx-2xx-2xx-2xx-2xx-2xx-2222--------------|

Chorus x4
Eb|-------------------------------------------|
Bb|-------------------------------------------|
F |-------3-3-3-7-7-7-8-8-8-10-10-10----------|
Bb|-7-7-7-------------------------------------|

Eb|-------------------------------------------|
Bb|-------------------------------------------|
F |--------3-3-3-7-7-7-7-7-7-7-7-7-7----------|
Bb|-7-7-7-------------------------------------|

Outro
Eb|-----------------------------------------------------------------|
Bb|-----------------------------------------------------------------|
F |-----------------------------------------------------------------|
Bb|-22-22-22-22-22-22-22-22-22-22-22-22-22-22-22-22-22-22-22--------|

         *** Note: On the first part of the bridge  ***
         *** you can play "-2023202023202023-" on   ***
         *** low Bb string where I put "rest". Dean ***
         *** rests on the CD but plays that live.   ***

            
            
Suggest correction
Creating personal tab
Creating personal tab
You can edit any tab online and save it as your Personal.

You can edit, replace or remove any tab part or add personal notes – all changes will be seen only by you.

Personal tabs can be accessed anytime from any device, even offline.
Learn more »
Give kudos to tab author, rate the tab!
1 2 3 4 5
comments
print report bad tab
1 comment total.
0 reply
incubosity 1,595 Feb 27, 2009 04:22 PM

sweeeeeeeeeeeeeeeeeeeeeeeeeeet.....

guest
You may want to rate the tab now too:
select rating
Wanna post a correction for this tab? Suggest correction