Oops, an error
Loading. Please wait.
We have an official Well Enough Alone tab made by UG professional guitarists. Check out the tab »
×
1,531 views 1 this week
1 commentread comment
1 2 3 4 5
2 more votes to show rating
add to favorites
×
Save as Personal and add changes to this tab that will be seen only by you. Learn more ›
×
You can save this tab as Personal to edit and correct it or add notes. All changes will be seen only by you. Learn more »
launch autoscroll
font size
0
reset
guitar tuner
backing track
0:00
0:00
edit
Autoscroll
slow
fast
+/-
esc
set tempo
stop
Author
Ive seen them live and watched videos of Dean playing this.  Dean plays a 4 string so 
the tab and it is correct.

Tuning: B F# B E (low to high)

Intro:

E----------------------------------|
B----------------------------------|
F#---------------------------------|
B---33-3-333-3-333-88-8-888-8-888--|

E----------------------------------|
B----------------------------------|
F#---------------------------------|
B---33-3-333-3-333-----------------|


Verse:

E----------------------------------|
B----------------------------------|
F#------8--------------------------|
B---7-8---3------------------------|


Pre Chorus:

E----------------------------------|
B----------------------------------|
F#---------------------------------|
B---7(x8)-8(x8)-10(x8)-12(x8)------|

E----------------------------------|
B----------------------------------|
F#---------------------------------|
B---8(x8)-10(x8)-12(x8)------------|


Chorus:

E----------------------------------|
B----------------------------------|
F#---------------------------------|
B---3-33-3-33-33-8-88-8-88-8-8-----|


Interlude:

E----------------------------------|
B----------------------------------|
F#-----------------------8---------|   x2
B--777---777---777--12-8---12-10-8-|

E----------------------------------|
B----------------------------------|
F#---------------------------------|
B--5/7777h8-5/7777h8-5/7777h8------|

E----------------------------------|
B----------------------------------|
F#---------------------------------|
B--/10-10-10-10-10-5-5-5-5-5-------|

End Interlude With

E-------|
B-------|
F#------|
B--3~---|

Outro:

E----------------------------------|
B----------------------------------|
F#-------8-------------------------|
B---12-8---12-10-8--0~~------------|


Order: (Parts may be played multiple times. Just listen to the song.)

Intro
Verse
Pre Chorus
Chorus
Intro
Verse
Pre Chorus
Chorus
Interlude
Pre Chorus
Chorus
Outro

            
            
Suggest correction
Creating personal tab
Creating personal tab
You can edit any tab online and save it as your Personal.

You can edit, replace or remove any tab part or add personal notes – all changes will be seen only by you.

Personal tabs can be accessed anytime from any device, even offline.
Learn more »
Give kudos to tab author, rate the tab!
1 2 3 4 5
comments
print report bad tab
1 comment total.
0 reply
incubosity 1,595 Jan 29, 2009 01:55 PM

Sick tab! Fobo is the sickest bassist I definetely DO NOT know....5 stars all the way! Finally a good tab for the song....

guest
You may want to rate the tab now too:
select rating
Wanna post a correction for this tab? Suggest correction