Oops, an error
Loading. Please wait.

Drift Away tab

version 2
version 2

Whole song

2,405 views 1 this week
1 commentread comment
1 2 3 4 5
1 last vote to show rating
add to favorites
×
Save as Personal and add changes to this tab that will be seen only by you. Learn more ›
×
You can save this tab as Personal to edit and correct it or add notes. All changes will be seen only by you. Learn more »
launch autoscroll
font size
0
reset
how to read this tab
guitar tuner
edit
Autoscroll
slow
fast
+/-
esc
set tempo
stop
Author
drop D tuning (DADGBE)

intro
e|-----------------------------------------------------------------(10)-----|
b|--------------------------------------------------------------------------|
G|---2p0--------------------------------2p0---------------------------------|
D|-----------5p0-----2p0-----2/4---------------5p0-----2p0------------------|
A|--------------------------------------------------------------------------|
D|---0----0-------0-------0--------0---------0-------0-------0--------------| x2

Verse
        Ooooooohhhhhhhh         Of       the       times
    I          Fell..
e|----------------------------------------------------------------(10)-------|
b|---------------------------------------------------------------------------|
G|---2p0--------------------------------2p0----------------------------------|
D|-----------5p0-----2p0-----2/4---------------5p0-----2p0-------------------|
A|---------------------------------------------------------------------------|
D|---0----0-------0-------0--------0---------0-------0-------0--------0------|


                                             Drift     away..
e|-----------------------------------------------------------------(10)-----|
b|--------------------------------------------------------------------------|
G|---2p0--------------------------------2p0---------------------------------|
D|-----------5p0-----2p0-----2/4---------------5p0-----2p0------------------|
A|--------------------------------------------------------------------------|
D|---0----0-------0-------0--------0---------0-------0-------0--------------|


 And Ooooooohhhhhhhh         Of        these   lies                                I've
  been      told..
e|----------------------------------------------------------------(10)-------|
b|---------------------------------------------------------------------------|
G|---2p0--------------------------------2p0----------------------------------|
D|-----------5p0-----2p0-----2/4---------------5p0-----2p0-------------------|
A|---------------------------------------------------------------------------|
D|---0----0-------0-------0--------0---------0-------0-------0--------0------|


                                             I'll            stay..
e|-----------------------------------------------------------------(10)-----|
b|--------------------------------------------------------------------------|
G|---2p0--------------------------------2p0----------------------- (7)------|
D|-----------5p0-----2p0-----2/4---------------5p0-----2p0------------------|
A|--------------------------------------------------------------------------|
D|---0----0-------0-------0--------0---------0-------0-------0--------------|


        Ooooooohhhhhhhh         Found    the       reason                              
    The
e|----------------------------------------------------------------(10)-------|
b|---------------------------------------------------------------------------|
G|---2p0--------------------------------2p0----------------------------------|
D|-----------5p0-----2p0-----2/4---------------5p0-----2p0-------------------|
A|---------------------------------------------------------------------------|
D|---0----0-------0-------0--------0---------0-------0-------0--------0------|


        Things..                                      That you say..
                                                                            v [Electric 
1]
e|----------------------------------------------------------------(10)-------|
b|---------------------------------------------------------------------------|
G|---2p0--------------------------------2p0----------------------------------|
D|-----------5p0-----2p0-----2/4---------------5p0-----2p0-------------------|
A|---------------------------------------------------------------------------|
D|---0----0-------0-------0--------0---------0-------0-------0--------0------|


        Ooooooohhhhhhhh            Now   I   sing   them
   they    all..
e|----------------------------------------------------------------(10)-------|
b|---------------------------------------------------------------------------|
G|---2p0--------------------------------2p0----------------------------------|
D|-----------5p0-----2p0-----2/4---------------5p0-----2p0-------------------|
A|---------------------------------------------------------------------------|
D|---0----0-------0-------0--------0---------0-------0-------0--------0------|


                                                           Fade     away
                                                                            v [Electric 
2]
e|----------------------------------------------------------------(10)-------|
b|---------------------------------------------------------------------------|
G|---2p0--------------------------------2p0----------------------------------|
D|-----------5p0-----2p0-----2/4---------------5p0-----2p0-------------------|
A|---------------------------------------------------------------------------|
D|---0----0-------0-------0--------0---------0-------0-------0--------0------|


Chorus
       &          %         D/A       Em7        Cadd9        D/A          Em7        Cadd9
e|--5------3------2------3--------3--------2--------3--------3-|
b|--5------3------3------3--------3--------3--------3--------3-|
G|--7------5------2------0--------0--------2--------0--------0-|
D|--7------5------0------0--------2--------0--------0--------2-|
A|--5------3------0------2--------3--------0--------2--------3-|
D|--5------3------x------x--------x--------x--------x--------x-|

  &          %
Sinking away,
       D/A
Well I'm not worried to change
  &                %
Dreaming of you every day,
        D/A
And i tell myself that i will be okay

         Em7             Cadd9
And i cant believe i ever walked away
       D/A
I'ma take the time until i get right
                Em7           Cadd9
then i'm gonna take it back someday


Repeat Verse


Chorus


Different Guitar Solo's in Cannon (Listen to to song for rhythm of the other parts)

e|-------------------------------------------------------------------(10)---|
b|--------------------------------------------------------------------------|
G|---2p0--------------------------------2p0-------------------------(7))----|
D|-----------5p0-----2p0-----2/4---------------5p0-----2p0------------------|
A|--------------------------------------------------------------------------|
D|---0----0-------0-------0--------0---------0-------0-------0--------------|

   Electric Guitar part 1       Electric Guitar  part 2
e|---0---2---------    e|---------2---------|
b|-----------0---1-    b|--0--1-------------|
G|-----------------    G|-------------------|
D|-----------------    D|------------4------|
A|-----------------    A|-------------------|
D|-----------------    D|-------------------|

2nd acoustic (listen to know how long to hold the notes)
e|----------------------------------|
b|----------------------------------|
G|----------0---2---0-------0---2---|
D|--0---4---------------4-----------|
A|----------------------------------|
D|----------------------------------|

High Acoustic Solo
e|------14----        e|-----0--2----    e|-------12---        e|-----0--2----  e|------10--|
b|------------        b|--3----------    b|------------        b|--3----------  b|----------|
G|--11--------       G|-------------    G|--11--------       G|-------------  G|--11--------|
D|------------       D|-------------    D|------------       D|-------------  D|------------|
A|------------       A|-------------    A|------------       A|-------------   A|-----------|
D|------------ x5  D|-------------   D|------------ x 5  D|-------------  
x5

Repeat Chorus x2

            
            
Suggest correction
Creating personal tab
Creating personal tab
You can edit any tab online and save it as your Personal.

You can edit, replace or remove any tab part or add personal notes – all changes will be seen only by you.

Personal tabs can be accessed anytime from any device, even offline.
Learn more »
Give kudos to tab author, rate the tab!
1 2 3 4 5
comments
print report bad tab
1 comment total.
0 reply
CjayN87 30 Jun 16, 2006 12:20 AM

EDIT: Cheyenne played this part on tv like this
e|-----------------------------------------------------------------(10)------|
b|---------------------------------------------------------------------------|
G|---2p0-----0---------------------------2p0----0---------------------------|
D|--------------0----2p0-----2/4-------------------0---2p0------------------|
A|--------------------------------------------------------------------------|
D|---0----0-------0-------0--------0---------0-------0-------0--------------|

guest
You may want to rate the tab now too:
select rating
Wanna post a correction for this tab? Suggest correction