Oops, an error
Loading. Please wait.

Color My World tab

version 2
version 2

Whole song

Interactive

by Chicago
30,104 views 33 this week
1 commentread comment
1 2 3 4 5
x 21
add to favorites
×
Save as Personal and add changes to this tab that will be seen only by you. Learn more ›
×
You can save this tab as Personal to edit and correct it or add notes. All changes will be seen only by you. Learn more »
launch autoscroll
font size
0
reset
how to read this tab
guitar tuner
edit
Autoscroll
slow
fast
+/-
esc
set tempo
stop
[Intro]                                 
(Repeat 3 times:interlude, verse & solo)
    FM7               [repeat measure]    FM7 [1x1230]        
e|--------0---------|------------------|--------0---------|------------------|
B|------1---1-------|------------------|------1---1-------|------------------|
G|----2-------2-----|------o-/---------|o---2-------2-----|------o-/---------|
D|--3---------------|-------/-o--------|o-3---------------|-------/-o--------|
A|------------------|------------------|------------------|------------------|
E|--1---------------|------------------|--1---------------|------------------|
                              
   Am [x02210]                           Bb [x13331]
e|--------0---------|------------------|--------1---------|------------------|
B|------1---1-------|------------------|------3---3-------|------------------|
G|----2-------2-----|------o-/---------|----3-------3-----|------o-/---------|
D|--2---------------|-------/-o--------|--3---------------|-------/-o--------|
A|--0---------------|------------------|--1---------------|------------------|
E|------------------|------------------|------------------|------------------|

       xxx331                                 xx6543
e|---------1--------|------------------|--------3---------|------------------|
B|-------3---3------|------------------|------4---4-------|------------------|
G|---0-3-------3----|------o-/---------|----5-------5-----|------o-/---------|
D|------------------|-------/-o--------|--6---------------|-------/-o--------|
A|------------------|------------------|------------------|------------------|
E|------------------|------------------|------------------|------------------|

        xx4321                                xx4210
e|--------1---------|------------------|--------0---------|------------------|
B|------2---2-------|------------------|------1---1-------|------1-3-1-------|
G|----3-------3-----|------o-/---------|----2-------2-----|----2-------2-----|
D|--4---------------|-------/-o--------|--4---------------|--4---------------|
A|------------------|------------------|------------------|------------------|
E|------------------|------------------|------------------|------------------|

        xx5432                                xxx321
e|--------2---------|------------------|--------1---------|------------------|
B|------3---3-------|------------------|------2---2-------|------------------|
G|----4-------4-----|------o-/---------|--0-3-------3-----|-----o-/----------|
D|--5---------------|-------/-o--------|------------------|------/-o---------|
A|------------------|------------------|------------------|------------------|
E|------------------|------------------|------------------|------------------|

    xxx310    repeat meas. 3 times   xx3210         xx333x  xxx31x
e|--------0------|--------------|--------0--------|------------------|--0-*1-|
B|------1---1----|-------/-/----|------1---1------|------3------1----|--1----|
G|--0-3-------3--|----3-/-/-----|----2-------2----|----3----0-3-----o|--2----|
D|---------------|-----/-/-3----|--3--------------|--3--------------o|--3----|
A|---------------|----/-/-------|-----------------|------------------|-------|
E|---------------|--------------|-----------------|------------------|--1----|
                                                                      *trill

[Verse]
As time goes on I realize 
Just what you mean to me 
And now, now that you're near 
Promise your love 
That I've waited to share 
And dreams of our moments together 
Color my world with hope of loving you

            
            
Suggest correction
Creating personal tab
Creating personal tab
You can edit any tab online and save it as your Personal.

You can edit, replace or remove any tab part or add personal notes – all changes will be seen only by you.

Personal tabs can be accessed anytime from any device, even offline.
Learn more »
comments
print report bad tab
1 comment total.
0 reply
evilhobo 10 Feb 03, 2013 11:12 AM

it sounds better than the first one definitley

guest
You may want to rate the tab now too:
select rating
Wanna post a correction for this tab? Suggest correction