Oops, an error
Loading. Please wait.

Amanece tab

62 views 1 this week
no commentswrite comment
1 2 3 4 5
3 more votes to show rating
add to favorites
×
Save as Personal and add changes to this tab that will be seen only by you. Learn more ›
×
You can save this tab as Personal to edit and correct it or add notes. All changes will be seen only by you. Learn more »
launch autoscroll
font size
0
reset
how to read this tab
guitar tuner
edit
Autoscroll
slow
fast
+/-
esc
set tempo
stop
     >>>>>>>  E. Z. L. N. <<<<<<<<

intro: 3 veces limpio, 2 con distorsion.
En la 2ª vez limpia entra ya otra guitarra
markando los akordes en palm mute.


----------------------------------------|
--------|---------|---------------------|
-5--8-5-|-7--10-7-|-8-12--8-10--8-12-10-|
--------|---------|---------------------|
----------------------------------------|
----------------------------------------|
 G#       A#        Cm

---------------------------------------|
---------------------------------------|
-5--8-5-|-4--5-4-|-8-12--8-10--8-12-10-|
---------------------------------------|
---------------------------------------|
---------------------------------------|
 G#       G        Cm

----------------------------------------|
--------|---------|---------------------|
-5--8-5-|-7--10-7-|-8-12--8-10--8-12-10-|
--------|---------|---------------------|
----------------------------------------|
----------------------------------------|
 G#       A#        Cm

---------------------------------------|
---------------------------------------|
-13--8s10--12--12--12--10--------------|
---------------------------------------|
---------------------------------------|
---------------------------------------|
 G#*       D#       G*


redoble de bateria:  C-C-C-C-D#D#D#D#  (en palm mute)  x 4


ESTROFA:

      C   G#*   D# (este D# es siempre x2, y hay k mutearlo)
Amanece...
C                D#
la noche ha sido larga,
G#                 A#
cuánta sangre derramada
         C         G#*       D#
en el estado de Chiapas...
 C              D#
Por orden del gobierno
      G#            A#
más indigenas han muerto...

         C               G#*        D#
y es que está pasando el tiempoo..
   C                D#
el dolor se ha conjurado
       G#              A#
y escondido en las montañas...
   C               G#*         D#
de un pueblo ya cansadooo...
C        D#            G#       A#
ke kubre su rostro y empuña sus armas...

ESTRIBILLO:

G#      A#       Cm (mute)
                 Lucha armada!!!

G#      G        Cm
                 Guerra encapuchada!!!

G#      A#       Cm (mute)
                 Muertes y rabia!!!

G#*     D#       G*
                 En Chiapaaas!!!


redoble de bateria:  C-C-C-C-D#D#D#D#  (en palm mute)


ESTROFA:

Sombras de miedo...
ke nunca consiguieron
callar la voz de un pueblo
estancado en la miseria...
familias destrozadas
ke lloran a sus muertos
genocidio de mierdaaa...
ke no ha sido declarado
pero sigue masacrando
a un pueblo ya cansadooo...
ke kubre su rostro y empuña sus armas...

ESTRIBILLO:

G#      A#       Cm
                 Lucha armada!!!
G#      G        Cm
                 Guerra encapuchada!!!
G#      A#       Cm
                 Muertes y rabia!!!
G#*     D#       G*
                 En Chiapaaas!!!

*IMPORTANTE: LOS AKORDES SEÑALADOS KON UN * SIGNIFIKA
KE UNA GUITARRA TOKA EL AKORDE KOMO TAL Y LA OTRA,
JUNTO KON EL BAJO,
LO TOKAN UNA OCTAVA MAS AGUDO.

     >>>>>>>  E. Z. L. N. <<<<<<<<

            
            
Suggest correction
Creating personal tab
Creating personal tab
You can edit any tab online and save it as your Personal.

You can edit, replace or remove any tab part or add personal notes – all changes will be seen only by you.

Personal tabs can be accessed anytime from any device, even offline.
Learn more »
Give kudos to tab author, rate the tab!
1 2 3 4 5
comments
print report bad tab
guest
Wanna post a correction for this tab? Suggest correction