Oops, an error
Loading. Please wait.

Spain bass

version 1
version 1

Whole song

Interactive

52,753 views 108 this week
2 commentsread comments
1 2 3 4 5
x 6
add to favorites
×
Save as Personal and add changes to this tab that will be seen only by you. Learn more ›
×
You can save this tab as Personal to edit and correct it or add notes. All changes will be seen only by you. Learn more »
launch autoscroll
font size
0
reset
guitar tuner
backing track
0:00
0:00
edit
Autoscroll
slow
fast
+/-
esc
set tempo
stop
Adrian Scholze guitar tab turn in bass
By MarkusBass

 A-Part
                     Em11      F#sus F#

                                   Em11      F#sus F#
g|---11----------------------------------------------|
d|-12--12-14-12---12-11--11-8-----19-19-19---11-11-11|
a|--------------14-----12-----9---14-14-14---14-14-13|
e|--------------------------------14-14-14---14-14-14|

B-part

    Gma7       F#7    Em7   A7    Dma7 Gma7    C#7   F#7 Bm    B7

g|--------6-7-9-7-6----------6-7-9-7-9--11--9-7-6-7-9-7-6-4h6-4/8~~|
d|-----7-9----------------7-9--------------------------------------|
a|-9-10---------------9-10-----------------------------------------|
e|-----------------------------------------------------------------|


C-Part

g|--9-12/11--7-9--7\6--------7-9-9-12/11----7-4-7-4-9-6-4---4-6---------------------|
d|-9----------9--7----7-9-5-5----------------------------4-4---6/8-6-4--4-6-8\7-4---|
a|--------------------------------------------------------7------------4-4-4--------|
e|----------------------------------------------------------------------------------|

g|-11-11-9--7-4~~----|
d|-------------------|
a|-------------------|
e|-------------------|


A-Part
B-part
C-part
D-part


   Gma7         F#7      Em7 A7          Dma7 Gma7    C#7    F#7  Bm   B7

g|------6-7-6---7-6-----11-9-7-------6-7-9-7-9-11------9-7-6-7-9--7-6-6\4--8-9-11|
d|-9~~-9------9----8~~--------9---7-9--------------------------------------------|
a|-------------------------------------------------------------------------------|
e|-------------------------------------------------------------------------------|

    Em7   A7    Dma7  Gma7   C#7 F#7 Bm      B7
e|-------------------------------------------------|
b|----------------------7--------------------------|
g|---------6-7-9-7-9------9-7-6-7-9-7-6-4h6\4-/8---|
d|-----7-9-----------------------------------------|
a|-9-10--------------------------------------------|
e|-------------------------------------------------|


    Em7   A7    Dma7  Gma7   C#7 F#7 Bm      B7

g|---------6-7-9-7-9-----11-9-7-6-7-9-7-6-4h6\4-/8---|
d|-----7-9-------------------------------------------|
a|-9-10----------------------------------------------|
e|---------------------------------------------------|

C-part

Impro-Part

| Gma7 |  Gma7  |  F#   |  F#   | Em7  |   A7  |
| Dma7 |  Gma7  |  C#7  |  F#7  |  Bm  |   B7  |



************************************

| h  Hammer-on
| /  Slide up
| \  Slide down
| ~  Vibrato

************************************

            
            
Suggest correction
Creating personal tab
Creating personal tab
You can edit any tab online and save it as your Personal.

You can edit, replace or remove any tab part or add personal notes – all changes will be seen only by you.

Personal tabs can be accessed anytime from any device, even offline.
Learn more »
comments
print report bad tab
2 comments total.
0 reply
Mafibass 10 Feb 22, 2015 08:54 AM

Its very nice tab but I would rather play in intro two chords

g|---11---------------------------14-14-14-----------|
d|-12--12-14-12---12-11--11-8-----12-12-12---16-16-16|
a|--------------14-----12-----9--------------14-14-13|
e|--------------------------------12-12-12---14-14-14|

0 reply
synpet713192 61 May 06, 2015 03:50 PM

Lack of accuracy. Bass does follow some of these parts, but this is simply a transcription from an existing guitar tab, and does not cover the bass parts in any version of the song. During "B-part", the bass deviates from the melody shown here (typically a flute part).

guest
Wanna post a correction for this tab? Suggest correction