Oops, an error
Loading. Please wait.

Pobrecito Mi Cigarro tab

74 views 1 this week
no commentswrite comment
1 2 3 4 5
3 more votes to show rating
add to favorites
×
Save as Personal and add changes to this tab that will be seen only by you. Learn more ›
×
You can save this tab as Personal to edit and correct it or add notes. All changes will be seen only by you. Learn more »
launch autoscroll
font size
0
reset
how to read this tab
guitar tuner
edit
Autoscroll
slow
fast
+/-
esc
set tempo
stop
SALUDOS DESDE LA PUERTA DE ENTRADA AL MUNDO MAYA
ESCARCEGA CAMPECHE SACADA POR 

ESTA ROLA SE LA DEDICO A MI FINADO PADRE
FUMÓ DURANTE MUCHO TIEMPO, LO DEJO,
PERO AUN ASI EL DAÑO FUE IRREVERSIBLE
LE TRAJO COMPLICACIONES DE
SALUD HASTA SU FALLECIMIENTO.
QEPD + Alejandro Montero P.

NOTA: el ritmo es un 6/8 yo creo que suena
      Huapango o jarana? búsquenle?

INTRO: (es con SAX pero lo tabule para guitarra)

      E7        Am       D7        G
e--------------------------------------
B--0-1-3--3-3--3-3-1------1--1-0---0---
G-----------------------2--2-----2-----
D--------------------------------------
A-------------------------------------¬-
E--------------------------------------

   Am              Em         B7     Em
e--8------------7-----------------------
B----7-8-10-8-7---5----4-5-7-----8-7-5--
G----------------------------4----------
D---------------------------------------
A---------------------------------------
E---------------------------------------

   Am              Em         B7     Em
e--8------------7-----------------------
B----7-8-10-8-7---5----4-5-7-----8-7-5--
G----------------------------4----------
D---------------------------------------
A---------------------------------------
E---------------------------------------

           B7       Em          B7       Em
e--------7--------------------7------------
B------8--------8-7---------8--------8-7---
G--9-9-------8-8----9---9-9-------8-8---8v-
D------------------------------------------
A------------------------------------------
E------------------------------------------

     Em                 Am               Em
Pobrecito mi cigarro un día te han de culpar
    Am               Em      B7            Em
Cuando el corazón cansado me deje de funcionar
    Am                Em      B7            Em
(Cuando el corazón cansado me deje de funcionar)

CORO:
       E7          Am      D7              G
Y a lo largo de la vida: fumar, fumar y pensar
Am                  Em         B7        Em
Sueños envueltos en humo y son humo nada más
Am                   Em          B7        Em
(Sueños envueltos en humo y eran humo nada más)


INTRO: E7 - Am - D7 - G
       Am - Em - B7 - Em
       Am - Em - B7 - Em
       B7 - Em - B7 - Em

    Em                        Am           Em
Qué larga la madrugada cuánto tarda en aclarar
     Am           Em       B7             Em
Bien haya mi cigarrito hermano en mi soledad
      Am           Em      B7              Em
(Bien haya mi cigarrito hermano en mi soledad)

CORO:
       E7          Am      D7              G
Y a lo largo de la vida: fumar, fumar y pensar
Am                  Em         B7        Em
Sueños envueltos en humo, eran humo nada más
Am                   Em          B7        Em
(Sueños envueltos en humo y eran humo nada más)

INTRO: E7 - Am - D7 - G
       Am - Em - B7 - Em
       Am - Em - B7 - Em
       B7 - Em - B7 - Em

    Em                          Am            Em
Una queja en la guitarra, en el aire algún cantar
      Am          Em           B7           Em
Y el humito del cigarro que no sabe a dónde va
        Am         Em           B7           Em
(Y el humito del cigarro que no sabe a dónde va)

CORO:
       E7          Am      D7              G
Y a lo largo de la vida: fumar, fumar y pensar
Am                  Em         B7        Em
Sueños envueltos en humo, que son humo nada más
Am                   Em          B7        Em
(Sueños envueltos en humo y eran humo nada más)

     Em                 Am               Em
Pobrecito mi cigarro un día te han de culpar
  Am                 Em      B7            Em
Cuando el corazón cansado me deje de funcionar
   B7            Em
Me deje de funcionar
   B7            Em
Me deje de funcionar
   B7            Em   B7-Em
Me deje de funcionar

FIN

            
            
Suggest correction
Creating personal tab
Creating personal tab
You can edit any tab online and save it as your Personal.

You can edit, replace or remove any tab part or add personal notes – all changes will be seen only by you.

Personal tabs can be accessed anytime from any device, even offline.
Learn more »
Give kudos to tab author, rate the tab!
1 2 3 4 5
comments
print report bad tab
guest
Wanna post a correction for this tab? Suggest correction