Oops, an error
Loading. Please wait.

Paris bass

version 2
version 2

Whole song

Interactive

451 views 1 this week
no commentswrite comment
1 2 3 4 5
3 more votes to show rating
add to favorites
×
Save as Personal and add changes to this tab that will be seen only by you. Learn more ›
×
You can save this tab as Personal to edit and correct it or add notes. All changes will be seen only by you. Learn more »
launch autoscroll
font size
0
reset
guitar tuner
edit
Autoscroll
slow
fast
+/-
esc
set tempo
stop
Author
Difficulty
-------------------------------------------------------------------------------
			     Paris - Chicosci
-------------------------------------------------------------------------------

Tabbed By : Miguel
e-mail: schism_theband@yahoo.com

Tuning: half-step down (Eb-Ab-Db-Gb)

Intro pt. 1 (listen for the timing)
Gb|---------------------------------------------------------------------------|
Db|---------------------------------------------------------------------------|
Ab|---------------------------------------------------------------------------|
Eb|----55---------------------------------------------------------------------|  

Intro pt.2 
Gb|---------------------------------------------------------------------------|
Db|---------------------------------------------------------------------------|
Ab|---------------------------------------------------------------------------|
Eb|---55555555--22222222-0000000000000000-55555555-22222222/------------------|

Verse (listen to song for timing)
Gb|---------------------------------------------------------------------------|
Db|---------------------------------------------------------------------------|
Ab|---------------------------------------------------------------------------|
Eb|---55----------------------------------------------------------------------|

 
 First Chorus
Gb|---------------------------------------------------------------------------|
Db|---------------------------------------------------------------------------|
Ab|---------------------------------------------------------------------------|
Eb|---55555555-22222222-0000000000000000-55555555-22222222-0------------------|


Verse 2 (listen to song for timing)
Gb|---------------------------------------------------------------------------|
Db|---------------------------------------------------------------------------|
Ab|---------------------------------------------------------------------------|
Eb|--55-----------------------------------------------------------------------|


Second Chorus
Gb|---------------------------------------------------------------------------|
Db|---------------------------------------------------------------------------|
Ab|---------------------------------------------------------------------------|
Eb|---55555555-22222222-0000000000000000--------------------------------------| 
do this 3x, during thr third repetition hit the open string just once and let it ring.


Bridge pt.1 (listen for timing)
Gb|---------------------------------------------------------------------------|
Db|---------------------------------------------------------------------------|
Ab|---------------------------------------------------------------------------|
Eb|---55-or-00---------------------------------------------------------------|

Bridge pt.2 (listen for timing)
Gb|---------------------------------------------------------------------------|
Db|---------------------------------------------------------------------------|
Ab|---------------------------------------------------------------------------|
Eb|---55-555-or-00-000--------------------------------------------------------|

Bridge pt.3
Gb|---666-444-222-111---------------------------------------------------------|
Db|-------------------444-2---------------------------------------------------|
Ab|---------------------------------------------------------------------------|
Eb|---------------------------------------------------------------------------|
Do this 4 times. after that Verse, then Chorus riff, end on G#, just listen to the song for timing.



| /  slide up
| \  slide down
| h  hammer-on
| p  pull-off
| ~  vibrato
| +  harmonic
| x  Mute note
===============================================================================

            
            
Suggest correction
Creating personal tab
Creating personal tab
You can edit any tab online and save it as your Personal.

You can edit, replace or remove any tab part or add personal notes – all changes will be seen only by you.

Personal tabs can be accessed anytime from any device, even offline.
Learn more »
Give kudos to tab author, rate the tab!
1 2 3 4 5
comments
print report bad tab
guest
You may want to rate the tab now too:
select rating
Wanna post a correction for this tab? Suggest correction