Oops, an error
Loading. Please wait.

Lady Cannabis tab

4 views 1 this week
no commentswrite comment
1 2 3 4 5
3 more votes to show rating
add to favorites
×
Save as Personal and add changes to this tab that will be seen only by you. Learn more ›
×
You can save this tab as Personal to edit and correct it or add notes. All changes will be seen only by you. Learn more »
launch autoscroll
font size
0
reset
how to read this tab
guitar tuner
edit
Autoscroll
slow
fast
+/-
esc
set tempo
stop
TRANSCRIBED BY RUDY GUZMAN


guzman_84@


intro
e:-----5--5-5-5-5-5-5---------5-5-5-5-5-|
B:-----6--6---6-6-6-6------5--6-6-6-6-6-|
G:-----7--7---7-7-7-7------5--7-7-7-7-7-|
D:---7-------------------5--------------|
A:-5-------------------3----------------|
E:--------------------------------------|

e:-----5--5-5-5-5-5-5------5--5-5-5-5-5-|
B:-----6--6---6-6-6-6------5--6-6-6-6-6-|
G:-----7--7---7-7-7-7------5--7-7-7-7-7-|
D:---7-------------------5--------------|
A:-5-------------------3----------------|
E:--------------------------------------|

verse
con lady cannabis yo kiero estar bailando al ritmo de chicovar...
e:---5-5----5-5-5---------------|
B:---6-6----6-6-6----5-5----5-5-|
G:---7-7----7-7-7----5-5----5-5-|
D:-------7----------------5-----|
A:-5---------------3------------|
E:------------------------------|

    hasta ke llegue....el dia 
e:---5-5----5-5-5-----|
B:---6-6----6-6-6--5--|
G:---7-7----7-7-7--5--|
D:-------7---------5--|
A:-5---------------3--|
E:--------------------|

final
e:---5-5----5-5-5---------------|
B:---6-6----6-6-6----5-5----5-5-|
G:---7-7----7-7-7----5-5----5-5-|
D:-------7----------------5-----|
A:-5---------------3------------|
E:------------------------------|

  NOTE: optional  *trompets rithym*
          |---- 2 times  ------      |
e:--------|--------------------------|----------------------------------------|
B:-15~~~~-|-15-13~~~-------13-15~~~~-|-15-13~~~--15-13---------------------13-|
G:--------|----------14~~~-----------|------------------14~~~~------12-14-----|
D:--------|--------------------------|---------------------------15-----------|
A:--------|--------------------------|----------------------------------------|
E:--------|--------------------------|----------------------------------------|

  arriba ke seko estar...
e:---5-5----5-5-5---------------|
B:---6-6----6-6-6----5-5----5-5-|
G:---7-7----7-7-7----5-5----5-5-|
D:-------7----------------5-----|
A:-5---------------3------------|
E:------------------------------|

con lady cannabis yo kiero estar bailando al ritmo de chicovar...
e:---5-5----5-5-5---------------|
B:---6-6----6-6-6----5-5----5-5-|
G:---7-7----7-7-7----5-5----5-5-|
D:-------7----------------5-----|
A:-5---------------3------------|
E:------------------------------|

    hasta ke llegue....el dia 
e:---5-5----5-5-5-----|
B:---6-6----6-6-6--5--|
G:---7-7----7-7-7--5--|
D:-------7---------5--|
A:-5---------------3--|
E:--------------------|

final
e:---5-5----5-5-5---------------|
B:---6-6----6-6-6----5-5----5-5-|
G:---7-7----7-7-7----5-5----5-5-|
D:-------7----------------5-----|
A:-5---------------3------------|
E:------------------------------|

con ladys cannabis yo estare...
e:---5-5----5-5-5---------------|
B:---6-6----6-6-6----5-5----5-5-|
G:---7-7----7-7-7----5-5----5-5-|
D:-------7----------------5-----|
A:-5---------------3------------|
E:------------------------------|

con lady cannabis yo kiero estar bailando al ritmo de chicovar...
e:---5-5----5-5-5---------------|
B:---6-6----6-6-6----5-5----5-5-|
G:---7-7----7-7-7----5-5----5-5-|
D:-------7----------------5-----|
A:-5---------------3------------|
E:------------------------------|

    hasta ke llegue....el dia 
e:---5-5----5-5-5-----|
B:---6-6----6-6-6--5--|
G:---7-7----7-7-7--5--|
D:-------7---------5--|
A:-5---------------3--|
E:--------------------|

final
e:---5-5----5-5-5---------------|
B:---6-6----6-6-6----5-5----5-5-|
G:---7-7----7-7-7----5-5----5-5-|
D:-------7----------------5-----|
A:-5---------------3------------|
E:------------------------------|

 *trompet solo*
e:---5-5----5-5-5---------------|
B:---6-6----6-6-6----5-5----5-5-|
G:---7-7----7-7-7----5-5----5-5-|
D:-------7----------------5-----|
A:-5---------------3------------|
E:------------------------------|

*trompets rithym*
e:--------|--------------------------|----------------------------------------|
B:-15~~~~-|-15-13~~~-------13-15~~~~-|-15-13~~~--15-13---------------------13-|
G:--------|----------14~~~-----------|------------------14~~~~------12-14-----|
D:--------|--------------------------|---------------------------15-----------|
A:--------|--------------------------|----------------------------------------|
E:--------|--------------------------|----------------------------------------|

solo trompet
  2 times
:------------------------------------------|
:------------------------------------------|
:------------------------------------------|
:-12---12--10-12--10---8--7-8-7--5--3--5-7-|
:------------------------------------------|
:------------------------------------------|

:-------10---10--8-10--8---6--5-6-5--3--1--3--5-6-5-6-6/8-6-5-6--5--3--5--3--5-6/10~~~~~~~-|
:-10-11------------------------------------------------------------------------------------|
:------------------------------------------------------------------------------------------|
:------------------------------------------------------------------------------------------|
:------------------------------------------------------------------------------------------|
:------------------------------------------------------------------------------------------|

con lady cannabis yo kiero estar bailando al ritmo de chicovar...
e:---5-5----5-5-5---------------|
B:---6-6----6-6-6----5-5----5-5-|
G:---7-7----7-7-7----5-5----5-5-|
D:-------7----------------5-----|
A:-5---------------3------------|
E:------------------------------|

    hasta ke llegue....el dia 
e:---5-5----5-5-5-----|
B:---6-6----6-6-6--5--|
G:---7-7----7-7-7--5--|
D:-------7---------5--|
A:-5---------------3--|
E:--------------------|

final
e:---5-5----5-5-5---------------|
B:---6-6----6-6-6----5-5----5-5-|
G:---7-7----7-7-7----5-5----5-5-|
D:-------7----------------5-----|
A:-5---------------3------------|
E:------------------------------|

hermosillo sonora     generacion 12...
e:---5-5----5-5-5---------------|
B:---6-6----6-6-6----5-5----5-5-|
G:---7-7----7-7-7----5-5----5-5-|
D:-------7----------------5-----|
A:-5---------------3------------|
E:------------------------------|


made in hillo son mex
oh i´ve seen this band from quite a while now, i must admit they really brings out
a great realize and the crowd just loves em fuckin'-a
los slams son kabrones, en el leona vicario, azotea, bufallo beers *con attaque*, galeria
etc ala chingada, buena banda hasta las viejas se meten al slam

dias perrinos me hacen cocinar enanos a clientes de takos


            
            
Suggest correction
Creating personal tab
Creating personal tab
You can edit any tab online and save it as your Personal.

You can edit, replace or remove any tab part or add personal notes – all changes will be seen only by you.

Personal tabs can be accessed anytime from any device, even offline.
Learn more »
Give kudos to tab author, rate the tab!
1 2 3 4 5
comments
print report bad tab
guest
Wanna post a correction for this tab? Suggest correction