Oops, an error
Loading. Please wait.

Al Amor Tuyo tab

by Chilcan
38 views 1 this week
no commentswrite comment
1 2 3 4 5
3 more votes to show rating
add to favorites
×
Save as Personal and add changes to this tab that will be seen only by you. Learn more ›
×
You can save this tab as Personal to edit and correct it or add notes. All changes will be seen only by you. Learn more »
launch autoscroll
font size
0
reset
how to read this tab
guitar tuner
edit
Autoscroll
slow
fast
+/-
esc
set tempo
stop
Tono: Mim
Ritmo: Cancion


e-----0-0-1--2-----3h2-0-------------0--------------------------------
b------------------3-------0-----1h3----3----3----0---0---------------
g--0---------------2-----------0-----------2---2----0-----------------
d------------0--0-------------------------------------------5h4--2----
a-----3--------------------------3------0-----------------------------
E--------------------------0----------------------3------3------------


e-----0-0-1--2-----3h2-0-------------0------------7--7----------------
b------------------3-------0-----1h3----3----3h8--8--7----------------
g--0---------------2-----------0-----------2------9--8----------------
d------------0--0---------------------------------9--7----------------
a-----3--------------------------3------0---------7--9----------------
E--------------------------0----------------------7--7----------------


e---3-3--3---7-5-7-5h7h5-----3-2h3-2----------------------------------
b-0-----0------5---------5------------2---4---0-----------------------
g--------------5----------------------2---4---0-----------0-2h3-2-0---
d---2-2-------------------------------2---4---2-------0h2-----------2-
a-------------------------------------------------0h2-----------------
E---------------------------------------------------------------------


e--4h5-3-1h2----------------------------------------------------------
b--4h5-3-1h2----------------------------------------------------------
g---------------------------------------------------------------------
d---------------------------------------------------------------------
a---------------------------------------------------------------------
E---------------------------------------------------------------------


  MIm                       LAm
Ahora no me duele estar sin ti
     SI7                     MIm
De nuevo tengo el alma que te dí
    DO         RE7
Soy libre para amar
    SOL              LAm
Por mas que no he de hallar
 MIm         DO    SI7
Amor como el tuyooooooo


     MIm                      LAm
Me estoy acostumbrando a no morir
   SI7                   MIm
Y más que nada trato de vivir
   DO               RE7
Después de una gran amor
   SOL     LAm               DO-SI7-MIm
El mágico sabor se queda con uuuunoooo

ESTRIBILLO

MIm RE7 SOL    RE7      SOL
 Al final...  de un gran amor
MI7   LAm         DO  SI7
El sabor queda con uno
MIm RE7 SOL    RE7      SOL
Corazón...    no he de probar
MI7   LAm         DO  SI7  MIm
Nada igual al amor   tuyo

Repite mismos acordes

Ahora no me duele estar sin ti
Porque algo inesperado descubrí
Que siempre al recordar
Yo vuelvo a respirar mi aroma en tu ropa


Me estoy acostumbrando a no morir
Y más que nada trato de vivir
Si hay otra en tu lugar
Compruebo que al besar, yo pienso en tu boca

Estribillo:

            
            
Suggest correction
Creating personal tab
Creating personal tab
You can edit any tab online and save it as your Personal.

You can edit, replace or remove any tab part or add personal notes – all changes will be seen only by you.

Personal tabs can be accessed anytime from any device, even offline.
Learn more »
Give kudos to tab author, rate the tab!
1 2 3 4 5
comments
print report bad tab
guest
Wanna post a correction for this tab? Suggest correction