Oops, an error
Loading. Please wait.

California bass

version 2
version 2

Whole song

730 views 6 this week
no commentswrite comment
1 2 3 4 5
x 6
add to favorites
×
Save as Personal and add changes to this tab that will be seen only by you. Learn more ›
×
You can save this tab as Personal to edit and correct it or add notes. All changes will be seen only by you. Learn more »
launch autoscroll
font size
0
reset
guitar tuner
edit
Autoscroll
slow
fast
+/-
esc
set tempo
stop
Author
Difficulty
There is really only this bass line played intermittently throughout the song.
Definitely through the first verse and the chorus. 
The x's are off beat muted notes leading into repeating phrase

[1st Chorus + 1st Verse]

G|-----------------------------------------------------|
D|.--13-12-13--12-10-12----10----6---6-7-8------x(8)x-.| 
A|.---------------------10---------6--------------or--.| x 7
E|-----------------------------------------6----x(6)x--|

[2nd Chorus + 2nd Verse] - Nothing, picks up again at the end of the second verse (2:01)

[3rd Chorus]
G|-----------------------------------------------|
D|.--13-12-13--12-10-12----10----6---6-7--------.|
A|.---------------------10---------6------------.| x 6
E|-----------------------------------------------|

            
            
Suggest correction
Creating personal tab
Creating personal tab
You can edit any tab online and save it as your Personal.

You can edit, replace or remove any tab part or add personal notes – all changes will be seen only by you.

Personal tabs can be accessed anytime from any device, even offline.
Learn more »
comments
print report bad tab
guest
You may want to rate the tab now too:
select rating
Wanna post a correction for this tab? Suggest correction