Oops, an error
Loading. Please wait.

Sixpounder tab

version 2
version 2

Whole song

Interactive

45,436 views 15 this week
11 commentsread comments
1 2 3 4 5
x 7
add to favorites
×
Save as Personal and add changes to this tab that will be seen only by you. Learn more ›
×
You can save this tab as Personal to edit and correct it or add notes. All changes will be seen only by you. Learn more »
launch autoscroll
font size
0
reset
how to read this tab
guitar tuner
backing track
0:00
0:00
edit
Autoscroll
slow
fast
+/-
esc
set tempo
stop
Author
                                   SIXPOUNDER
                        As recorded by Children Of Bodom
                    (From the 2003 Album HATE CREW DEATHROLL)

Words by Alexi Laiho

Music by Children Of Bodom
Arranged by Children Of Bodom
Transcribed by hades

Gtr I (C G C F A D) - 'Alexander'
Gtr II (C G C F A D) - 'noise'
Gtr III (C G C F A D) - 'Alexi'
Gtr IV (C G C F A D) - 'Solo Gtr.'

 Intro
  Q=153
           A5       BbA5G5  G5F#F5        G5              BbA5G5  G5F#F5
 4/4
  Gtr III
         PM                         PM--|     PM----|
  H    E E Q      E E E E E E E E   E E E  E  E E E E   E E E E E E E E
|---------------|-----------------|-------------------|-----------------|
|---------------|-----------------|-------------------|-----------------|
|---------------|-----------------|-------------------|-----------------|
|---------------|-----------------|-------------------|-----------------|
|----------5\---|---6-5-3---3-2-1-|--------3----------|---6-5-3---3-2-1-|
|--------0-5\---|-0-6-5-3-0-3-2-1-|-0-0-0--3--0-0-0-0-|-0-6-5-3-0-3-2-1-|
|
| Gtr I
|        PM   PM                    PM--|     PM----|
| H    E E E  E   E E E E E E E E   E E E  E  E E E E   E E E E E E E E
|---------------|-----------------|-------------------|-----------------|
|---------------|-----------------|-------------------|-----------------|
|---------------|-----------------|-------------------|-----------------|
|---------------|-----------------|-------<2>---------|-----------------|
|----------5----|---6-5-3---3-2-1-|-------<2>---------|---6-5-3---3-2-1-|
|--------0-5--0-|-0-6-5-3-0-3-2-1-|-0-0-0-----0-0-0-0-|-0-6-5-3-0-3-2-1-|


      F#G5    D5 C#5   BbA5G5  G5F#F5
  Gtrs I, III
  PM|     PM|
  E E E E E E  E E   E E E E E E E E
|------------------|-----------------|
|------------------|-----------------|
|------------------|-----------------|
|------------------|-----------------|
|-----2-3-----10-9-|---6-5-3---3-2-1-|
|-0-0-2-3-0-0-10-9-|-0-6-5-3-0-3-2-1-|


                                  BbA5G5  G5F#F5
  PM--|         ~~~~~~~~PM--|
  E E E  E     +E       E E E   E E E E E E E E
|-----------------------------|-----------------|
|-----------------------------|-----------------|
|-----------------------------|-----------------|
|-----------------------------|-----------------|
|-------[5]b6r([5])b5.5-------|---6-5-3---3-2-1-|
|-0-0-0-----------------0-0-0-|-0-6-5-3-0-3-2-1-|


      F#G5    D5 C#5 E5
  Gtr III                                Gtr II
  PM|     PM|                            TP
  E E E E E E  E E   W          +H       H
|------------------|----------|----------------|
|------------------|----------|----------------|
|------------------|----------|----------------|
|------------------|-0--------|-(0)------x\----|
|-----2-3-----10-9-|-0--------|-(0)------x\----|
|-0-0-2-3-0-0-10-9-|-0--------|-(0)------------|
|
| Gtr I                              Gtr II
| PM|     PM|                        TP
| E E E E E E  E E   W          +Q   H.
|------------------|----------|----------------|
|------------------|----------|----------------|
|------------------|----------|----------------|
|------------------|-7--------|-(7)--x\--------|
|-----2-3-----10-9-|-5--------|-(5)--x\--------|
|-0-0-2-3-0-0-10-9-|-0--------|-(0)------------|


 Pre-Verse
  N.C.F#
  Gtrs I, III
  PM----|   PM------------------------------------|
  e e S S S S e e S S S S   e e S S S S e e S S S S
|-------------------------|-------------------------|
|-------------------------|-------------------------|
|-------------------------|-------------------------|
|-------------------------|-------------------------|
|-------------------------|-------------------------|
|-2-2-2-2---2-2-2-2-2---2-|-2-2-2-2---2-2-2-2-2---2-|


  PM----|   PM----------------------------------|  ~~~
  e e S S S S e e S S S S   e e S S S S e S S S S  E
|-------------------------|---------------------------|
|-------------------------|---------------------------|
|-------------------------|---------------------------|
|-------------------------|---------------------------|
|-------------------------|---------------------------|
|-2-2-2-2---2-2-2-2-2---2-|-2-2-2-2---2-2-2-2-2-2-[2]-|


    ~~~~PM--|   PM--------------------|   PM----------|
   +E   e S S S S e e S S S S   e e S S S S e e S S S S
|-----------------------------|-------------------------|
|-----------------------------|-------------------------|
|-----------------------------|-------------------------|
|-----------------------------|-------------------------|
|-----------------------------|-------------------------|
|-([2])-2-2-2---2-2-2-2-2---2-|-2-2-2-2---2-2-2-2-2---2-|


  Bb5
  Gtr III
  ~~~~~~~~~~~~~~~~~~~  TP
  W              +Q.   E    H
|-------------|--------------------|
|-------------|--------------------|
|-------------|--------------------|
|-------------|--------------------|
|-3-----------|--(3)---x/-/15\-----|
|-------------|--------x/----------|
|
| Gtr I   Gtr IIGtr I
|         TP      ~~~~
| H.      Q       H        +H
|-------------|-/18-------(18)\----|
|-------------|-/16-------(16)\----|
|-------------|--------------------|
|---------x\--|--------------------|
|-6-------x\--|--------------------|
|-6-----------|--------------------|


   Verse
    E5        F5E5        D5  E5                        Bb5
    Gtr III
      PM----|     PM----|       PM--------------------|
    E S S S S E E S S S S E   E S S S S S S S S S S S S E
||--------------------------|------------------------------|
||o-------------------------|------------------------------|
||--------------------------|------------------------------|
||--7---------8-7---------5-|-7----------------------------|
||o-5---------6-5---------3-|-5-------------------------6--|
||----0-0-0-0-----0-0-0-0---|---0---0-0---0-0---0---0-0-6--|
|
|   Gtr I
|     PM----|     PM----|       PM--------------------|
|   E S S S S E E S S S S E   E S S S S S S S S S S S S E
||--------------------------|------------------------------|
||o-------------------------|------------------------------|
||--7---------8-7---------5-|-7----------------------------|
||----0-0-0-0-----0-0-0-0---|------------------------------|
||o-------------------------|---------------------------6--|
||--------------------------|---0---0-0---0-0---0---0-0-6--|


  E5        F5E5        D5  N.C.
    PM----|     PM----|     PM----|
  E S S S S E E S S S S E   S S S S  S  S  E  S S  E  S  S  E
|-------------------------|------------------------------------||
|-------------------------|-----------------------------------o||
|-------------------------|------------------10-9-10s14-12-14--||
|-7---------8-7---------5-|---------12-10-12-------------------||
|-5---------6-5---------3-|-----------------------------------o||
|---0-0-0-0-----0-0-0-0---|-0---0-0----------------------------||
|
|   PM----|     PM----|     PM----|
| E S S S S E E S S S S E   S S S S  S  S  E  S S  E  S  S  E
|-------------------------|------------------------------------||
|-------------------------|-----------------------------------o||
|-7---------8-7---------5-|-------------------7-5--7s10--9-10--||
|---0-0-0-0-----0-0-0-0---|-0---0-0--7--5--7-------------------||
|-------------------------|-----------------------------------o||
|-------------------------|------------------------------------||


   Bridge
    E5       F5    E5         D5      B5
         PM  PM|        PM--------------|
             2:3
    Q  E E E e e   Q  E E S S S S S S S S
||---------------|------------------------|
||o--------------|------------------------|
||---------------|------------------------|
||---------------|------------------------|
||o-0----0---1-1-|-0----0-3-3-3-3-0-0-0-0-|
||--0----0---1-1-|-0----0-----------------|
|
|        PM  PM|        PM--|     PM|
|            2:3
|   Q  E E E e e   Q  E E S S e   S S e
||---------------|------------------------|
||o--------------|------------------------|
||---------------|------------------------|
||---------------|------------5-------2---|
||o-0----0---1-1-|-0----0-----3---0-0-0---|
||--0----0---1-1-|-0----0-0-0-------------|


  E5       F5    E5              D5
       PM  PM|       PM--------|
           2:3
  Q  E E E e e   Q   S S S S e e Q
|--------------|----------------------||
|--------------|---------------------o||
|--------------|----------------------||
|--------------|-----------------5----||
|-0----0---1-1-|-0-----------0-0-3---o||
|-0----0---1-1-|-0---0-0-0-0----------||
|
|      PM  PM|           PM----|
|          2:3
| Q  E E E e e   Q.      S S e e Q
|--------------|----------------------||
|--------------|---------------------o||
|--------------|----------------------||
|--------------|-----------------5----||
|-0----0---1-1-|-0-----------0-0-3---o||
|-0----0---1-1-|-0-------0-0----------||


   Verse
    E5        F5E5        D5  E5                        Bb5
      PM----|     PM----|       PM--------------------|
    E S S S S E E S S S S E   E S S S S S S S S S S S S E
||--------------------------|------------------------------|
||o-------------------------|------------------------------|
||--------------------------|------------------------------|
||--7---------8-7---------5-|-7----------------------------|
||o-5---------6-5---------3-|-5-------------------------6--|
||----0-0-0-0-----0-0-0-0---|---0---0-0---0-0---0---0-0-6--|
|
|     PM----|     PM----|       PM--------------------|
|   E S S S S E E S S S S E   E S S S S S S S S S S S S E
||--------------------------|------------------------------|
||o-------------------------|------------------------------|
||--7---------8-7---------5-|-7----------------------------|
||----0-0-0-0-----0-0-0-0---|------------------------------|
||o-------------------------|---------------------------6--|
||--------------------------|---0---0-0---0-0---0---0-0-6--|


                            1.                                    2.
  E5        F5E5        D5  N.C.                                  F#5
    PM----|     PM----|     PM----|
  E S S S S E E S S S S E   S S S S  S  S  E  S S  E  S  S  E     E E E E H
|-------------------------|------------------------------------||--------------|
|-------------------------|-----------------------------------o||--------------|
|-------------------------|------------------10-9-10s14-12-14--||--------------|
|-7---------8-7---------5-|---------12-10-12-------------------||--------------|
|-5---------6-5---------3-|-----------------------------------o||-2---2--------|
|---0-0-0-0-----0-0-0-0---|-0---0-0----------------------------||-2---2--------|
|
|   PM----|     PM----|     PM----|
| E S S S S E E S S S S E   S S S S  S  S  E  S S  E  S  S  E     E E E E H
|-------------------------|------------------------------------||--------------|
|-------------------------|-----------------------------------o||--------------|
|-7---------8-7---------5-|-------------------7-5--7s10--9-10--||--------------|
|---0-0-0-0-----0-0-0-0---|-0---0-0--7--5--7-------------------||--------------|
|-------------------------|-----------------------------------o||-2---2--------|
|-------------------------|------------------------------------||-2---2--------|


 Chorus
  E BbA5G5E G5F#F5        G5            E BbA5G5E G5F#F5      F#G5    D5 C#5
                    PM--|     PM----|                     PM|     PM|
  E E E E E E E E   E E E  E  E E E E   E E E E E E E E   E E E E E E  E E
|-----------------|-------------------|-----------------|------------------|
|-----------------|-------------------|-----------------|------------------|
|-----------------|-------------------|-----------------|------------------|
|-----------------|-------------------|-----------------|------------------|
|---6-5-3---3-2-1-|--------3----------|---6-5-3---3-2-1-|-----2s3-----10s9-|
|-0-6-5-3-0-3-2-1-|-0-0-0--3--0-0-0-0-|-0-6-5-3-0-3-2-1-|-0-0-2s3-0-0-10s9-|
|
|                   PM--|     PM----|                     PM|     PM|
| E E E E E E E E   E E E  E  E E E E   E E E E E E E E   E E E E E E  E E
|-----------------|-------------------|-----------------|------------------|
|-----------------|-------------------|-----------------|------------------|
|-----------------|-------------------|-----------------|------------------|
|-----------------|-------<2>---------|-----------------|------------------|
|---6-5-3---3-2-1-|-------<2>---------|---6-5-3---3-2-1-|-----2s3-----10s9-|
|-0-6-5-3-0-3-2-1-|-0-0-0-----0-0-0-0-|-0-6-5-3-0-3-2-1-|-0-0-2s3-0-0-10s9-|


  C5         D5          E BbA5G5E G5F#F5      F#G5    D5 C#5
  Gtrs I, III
                                           PM|     PM|
  W           W          E E E E E E E E   E E E E E E  E E
|----------|-----------|-----------------|------------------|
|----------|-----------|-----------------|------------------|
|----------|-----------|-----------------|------------------|
|-8--------|-10--------|-----------------|------------------|
|-8--------|-10--------|---6-5-3---3-2-1-|-----2s3-----10s9-|
|-8--------|-10--------|-0-6-5-3-0-3-2-1-|-0-0-2s3-0-0-10s9-|


  C5         D5          E BbA5G5E G5F#F5      F#G5    D5 C#5
                                           PM-------------|
  W           W          E E E E E E E E   E E E E E E  E E
|----------|-----------|-----------------|------------------|
|----------|-----------|-----------------|------------------|
|----------|-----------|-----------------|------------------|
|-8--------|-10--------|-----------------|------------------|
|-8--------|-10--------|---6-5-3---3-2-1-|-----2-3-----10-9-|
|-8--------|-10--------|-0-6-5-3-0-3-2-1-|-0-0-2-3-0-0-10-9-|


  C5         D5          C#             C
  Gtr III
  W           W          W               W
|----------|-----------|--------------|-------------------|
|----------|-----------|--------------|-------------------|
|----------|-----------|--------------|-------------------|
|-8--------|-10--------|-9------------|--8----------------|
|-8--------|-10--------|--------------|-------------------|
|-8--------|-10--------|-9------------|--8----------------|
|
| Gtr I
| W           W          W         a     W          a
|----------|-----------|--------------|-------------------|
|----------|-----------|--------------|-------------------|
|----------|-----------|-7--------(7)s|=10--------(10)s===|
|-8--------|-10--------|--------------|-------------------|
|-8--------|-10--------|-5--------(5)s|==8---------(8)s===|
|-8--------|-10--------|--------------|-------------------|


  B5                    F5
                        PM--|
                        |-3-|
   W                    q q q H
|---------------------|------------|
|---------------------|------------|
|---------------------|------------|
|--7------------------|------------|
|--7------------------|-1-1-1------|
|--7------------------|-1-1-1------|
|
|         \1/    \1/
|                       PM--|
|                       |-3-|
|  H     +Q     +Q      q q q H
|---------------------|------------|
|---------------------|------------|
|-14----(14)---(14)---|------------|
|---------------------|------------|
|-12----(12)---(12)---|-1-1-1------|
|---------------------|-1-1-1------|


 Guitar Solo
  N.C.         F#
  Gtr IV
           \1/             \1/             \1/             \1/             \1/
   S      +S    S  S      +S    S  S      +S    S  S      +S    S  S      +S    E
|-12-----(12)--12-12-----(12)--12-12-----(12)--12-12-----(12)--12-12-----(12)--12---|
|-15b17==(15)r----15b17==(15)r----15b17==(15)r----15b17==(15)r----15b17==(15)r------|
|-----------------------------------------------------------------------------------|
|-----------------------------------------------------------------------------------|
|-----------------------------------------------------------------------------------|
|-----------------------------------------------------------------------------------|
|
| Gtrs I, III
|  PM--------------------------|           PM----------------------------------------
|  e            e          S    S  S       S    e          e       S       S    S S
|-----------------------------------------------------------------------------------|
|-----------------------------------------------------------------------------------|
|-----------------------------------------------------------------------------------|
|-----------------------------------------------------------------------------------|
|-----------------------------------------------------------------------------------|
|--2------------2----------2----2----------2----2----------2-------2-------2------2-|


   S  S  S  S  S  S  S  S  S  S  S  S  S  S E
|-16p12----------12-17p12----------12-17p12-----|
|-------15----15----------15----15----------x---|
|----------13----------------14-----------------|
|-----------------------------------------------|
|-----------------------------------------------|
|-----------------------------------------------|
|
|---------------------------------------------|
|  e     e     S  S  S  S  e     e     S  S S S
|-----------------------------------------------|
|-----------------------------------------------|
|-----------------------------------------------|
|-----------------------------------------------|
|-----------------------------------------------|
|--2-----2-----2--2-----2--2-----2-----2--2---2-|


   S  T  T  S  S  S  S  S  S  S  S  S  S  S  S  S  S
|-12-13p12-10-12-10-------10-------------------------|
|-------------------13-12----13-12-10-13-12-10----12-|
|----------------------------------------------13----|
|----------------------------------------------------|
|----------------------------------------------------|
|----------------------------------------------------|
|
|  PM---------------|      PM-------------------------
|  e        e     S  S  S  S  e     e     S  S  S  S
|----------------------------------------------------|
|----------------------------------------------------|
|----------------------------------------------------|
|----------------------------------------------------|
|----------------------------------------------------|
|--2--------2-----2--2-----2--2-----2-----2--2-----2-|


             PM----| ~            ~~~
   S  S  S S S S S S Q       S S  E
|----------7-5-----------------------|
|-10-13--------5---------------------|
|-------13-------5---5---------------|
|------------------7---------9-x-[7]-|
|------------------------------------|
|------------------------------------|
|
|------------------------------|
|  e     e   S S S S S S S S S S  E
|------------------------------------|
|------------------------------------|
|------------------------------------|
|------------------------------------|
|---------------------------------1--|
|--2-----2---2-2---2-2-2-2-2-2-2--1--|


       |---------7:8---------|  |---------7:8---------|  |---------7:8---------|
   E   T  T  T  T    T  T    T  T  T    T  T    T  T  T  T  T  T  T    T  T    T  T  T  T  T
|--------------17h==20p17-----------------16h==19-16-------------17h==20p17---------------16--|
|-----------17--------------17---------17------------17-------17--------------17-------17-----|
|--------17-----------------------16-----------------------17-----------------------16--------|
|-----19-----------------------18-----------------------19-----------------------18-----------|
|---------------------------------------------------------------------------------------------|
|---------------------------------------------------------------------------------------------|
|
|  ~~~ PM-----------------|          PM------------------------------------------------|
| +E   e          S       S     S    S       e           e          S       S     S     S
|---------------------------------------------------------------------------------------------|
|---------------------------------------------------------------------------------------------|
|---------------------------------------------------------------------------------------------|
|---------------------------------------------------------------------------------------------|
|-(1)-----------------------------------------------------------------------------------------|
|-(1)--2----------2-------2----------2-------2-----------2----------2-------2-----------2-----|


   |--3--|  |---------7:8---------|  |---------7:8---------|  |---------7:8---------|
   T  T  T  T  T  T  T    T  T    T  T  T    T  T    T  T  T  T  T  T  T    T  T    T  E
|-19p16-------------17h==20p17-----------------16h==19p16--------------------------17h20----|
|-------17-------17--------------17---------17------------17------------------17------------|
|-------------17-----------------------16----------------------------------17---------------|
|----------19-----------------------18--------------------------------19--------------------|
|------------------------------------------------------------------19-----------------------|
|------------------------------------------------------------17h20--------------------------|
|
|  PM------------------------------------------------------------------------------------|
|  e        e          S       S     S    S       e           e          S       S     S S
|-------------------------------------------------------------------------------------------|
|-------------------------------------------------------------------------------------------|
|-------------------------------------------------------------------------------------------|
|-------------------------------------------------------------------------------------------|
|-------------------------------------------------------------------------------------------|
|--2--------2----------2-------2----------2-------2-----------2----------2-------2-------2--|


  PM--|
  |-3-|  |----3----| |-3-| |--3--| |-3-|  |---3---|  |--3--|  |---3---|
  S S S  S     S   S S S S S S   S S S S  S  S    S  S  S  S  S  S    S
|-------22b24==x---x-x-x-x-x-x---x-x-x-x-22-22---22-22-22-22-22-22---22-|
|-----x-----------------------------------------------------------------|
|---x-------------------------------------------------------------------|
|-x---------------------------------------------------------------------|
|-----------------------------------------------------------------------|
|-----------------------------------------------------------------------|
|
|        PM------|         PM--|          PM---|              PM---|
| E      S       S   E     S   S   E      S    S     E        S    S
|-----------------------------------------------------------------------|
|-----------------------------------------------------------------------|
|-----------------------------------------------------------------------|
|-----------------------------------------------------------------------|
|-----------------------------------------------------------------------|
|-2------0-------0---3-----0---0---5------0----0-----7--------0----0----|


  Bb5
 2/4
   Q   +Q
|-22--(22)r\---|
|--------------|
|--------------|
|--------------|
|--------------|
|--------------|
|
|  Q   +Q
|--------------|
|--------------|
|--------------|
|--------------|
|--6---(6)\----|
|--6---(6)\----|


   Verse
    E5        F5E5        D5  E5                        Bb5
   4/4
    Gtr III
      PM----|     PM----|       PM--------------------|
    E S S S S E E S S S S E   E S S S S S S S S S S S S E
||--------------------------|-----------------------------|
||o-------------------------|-----------------------------|
||--------------------------|-----------------------------|
||--7---------8-7---------5-|-7---------------------------|
||o-5---------6-5---------3-|-5-------------------------6-|
||----0-0-0-0-----0-0-0-0---|---0---0-0---0-0---0---0-0-6-|
|
|   Gtr I
|     PM----|     PM----|       PM--------------------|
|   E S S S S E E S S S S E   E S S S S S S S S S S S S E
||--------------------------|-----------------------------|
||o-------------------------|-----------------------------|
||--7---------8-7---------5-|-7---------------------------|
||----0-0-0-0-----0-0-0-0---|-----------------------------|
||o-------------------------|---------------------------6-|
||--------------------------|---0---0-0---0-0---0---0-0-6-|


                            1.
  E5        F5E5        D5  N.C.
    PM----|     PM----|     PM----|
  E S S S S E E S S S S E   S S S S  S  S  E  S S  E  S  S  E
|-------------------------|------------------------------------||
|-------------------------|-----------------------------------o||
|-------------------------|------------------10-9-10-14-12-14--||
|-7---------8-7---------5-|---------12-10-12-------------------||
|-5---------6-5---------3-|-----------------------------------o||
|---0-0-0-0-----0-0-0-0---|-0---0-0----------------------------||
|
|   PM----|     PM----|     PM----|
| E S S S S E E S S S S E   S S S S  S  S  E  S S  E  S  S  E
|-------------------------|------------------------------------||
|-------------------------|-----------------------------------o||
|-7---------8-7---------5-|-------------------7-5--7-10--9-10--||
|---0-0-0-0-----0-0-0-0---|-0---0-0--7--5--7-------------------||
|-------------------------|-----------------------------------o||
|-------------------------|------------------------------------||


  2.
  N.C.
    PM|   PM|   PM|    PM|
  E S S E S S E S S  E S  S
|---------------------------|
|---------------------------|
|---------------------------|
|---------------------------|
|-5-4-5-7-5-7-8-7-8-10-8-10-|
|---------------------------|
|
|   PM|   PM|   PM|    PM|
| E S S E S S E S S  E S  S
|---------------------------|
|---------------------------|
|---------------------------|
|---------------------------|
|-5-4-5-7-5-7-8-7-8-10-8-10-|
|---------------------------|


   Bridge
    E5         F5  E5       D       B
         PM  PM|        PM--------------|
             2:3
    Q  E E E e e   Q  E E S S S S S S S S
||---------------|------------------------|
||o--------------|------------------------|
||---------------|------------------------|
||---------------|------------------------|
||o-0----0---1-1-|-0----0-3-3-3-3-0-0-0-0-|
||--0----0---1-1-|-0----0-----------------|
|
|        PM  PM|        PM--|     PM|
|            2:3
|   Q  E E E e e   Q  E E S S e   S S e
||---------------|------------------------|
||o--------------|------------------------|
||---------------|------------------------|
||---------------|------------5-------2---|
||o-0----0---1-1-|-0----0-----3---0-0-0---|
||--0----0---1-1-|-0----0-0-0-------------|


  E5         F5  E5            B D5
       PM  PM|       PM--------|
           2:3
  Q  E E E e e   Q   S S S S e e Q
|--------------|----------------------||
|--------------|---------------------o||
|--------------|----------------------||
|--------------|-----------------5----||
|-0----0---1-1-|-0-----------0-0-3---o||
|-0----0---1-1-|-0---0-0-0-0----------||
|
|      PM  PM|           PM----|
|          2:3
| Q  E E E e e   Q.      S S e e Q
|--------------|----------------------||
|--------------|---------------------o||
|--------------|----------------------||
|--------------|-----------------5----||
|-0----0---1-1-|-0-----------0-0-3---o||
|-0----0---1-1-|-0-------0-0----------||


 Interlude
  D5
  Gtr IV
                    ~~~~
   E  +S   +S      +E   S  S  S  S  S  S  S  S  S  S
|----------------------------------------------------|
|-------------------------15-16-15-------18-15-------|
|-17-(17)-(17)b18r(17)-17----------17-15-------17-15-|
|----------------------------------------------------|
|----------------------------------------------------|
|----------------------------------------------------|
|
| Gtrs I, III
|  W
|----------------------------------------------------|
|----------------------------------------------------|
|--5-------------------------------------------------|
|--5-------------------------------------------------|
|--3-------------------------------------------------|
|----------------------------------------------------|


  F5                      C5
   S  S  S  S  S  S  S  S  S  S  S  S  S  S  S  S
|-18-15-------20-18-15-20-18-15-------15----------|
|-------18-16-------------------18-16----18-16-15-|
|-------------------------------------------------|
|-------------------------------------------------|
|-------------------------------------------------|
|-------------------------------------------------|
|
|  H                       H
|-------------------------------------------------|
|-------------------------------------------------|
|--3-----------------------3----------------------|
|--1-----------------------3----------------------|
|--------------------------1----------------------|
|-------------------------------------------------|


  D5
                    ~~~~
   E  +S   +S      +E   S  S  S  S  S  S  S  S  S  S
|----------------------------------------------------|
|-------------------------15-16-15-------18-15-------|
|-17-(17)-(17)b18r(17)-17----------17-15-------17-15-|
|----------------------------------------------------|
|----------------------------------------------------|
|----------------------------------------------------|
|
|  W
|----------------------------------------------------|
|----------------------------------------------------|
|--5-------------------------------------------------|
|--5-------------------------------------------------|
|--3-------------------------------------------------|
|----------------------------------------------------|


  A5                      E5
   S  S  S  S  S  S  S  S  S  S  S  S  S  S  S  S
|-18-15----------------15----------10-13-10-------|
|-------15----------15----------10----------10----|
|----------15----15----------10----------------10-|
|-------------17----------12----------------------|
|-------------------------------------------------|
|-------------------------------------------------|
|
|  H                       H
|-------------------------------------------------|
|-------------------------------------------------|
|--7-----------------------7----------------------|
|--5-----------------------7----------------------|
|--------------------------5----------------------|
|-------------------------------------------------|


  Eb5                        F#5/B
                    ~~~~
   E  +S   +S      +E   S  S  S  S  S  S  S  S  S  S
|----------------------------------------------------|
|-------------------------16-17-16-------19-16-------|
|-18-(18)-(18)b19r(18)-18----------18-16-------18-16-|
|----------------------------------------------------|
|----------------------------------------------------|
|----------------------------------------------------|
|
|  H                          H
|----------------------------------------------------|
|----------------------------------------------------|
|--6--------------------------4----------------------|
|--6--------------------------2----------------------|
|--4--------------------------0----------------------|
|----------------------------------------------------|


  F#5                     C#5
   S  S  S  S  S  S  S  S  S  S  S  S  S  S  S  S
|-19-16-------21-19-16-21-19-16-------16----------|
|-------19-17-------------------19-17----19-17-16-|
|-------------------------------------------------|
|-------------------------------------------------|
|-------------------------------------------------|
|-------------------------------------------------|
|
|  H                       H
|-------------------------------------------------|
|-------------------------------------------------|
|--4-----------------------4----------------------|
|--2-----------------------4----------------------|
|--------------------------2----------------------|
|-------------------------------------------------|


  Eb5                        F#5/B
                    ~~~~
   E  +S   +S      +E   S  S  S  S  S  S  S  S  S  S
|----------------------------------------------------|
|-------------------------16-17-16-------19-16-------|
|-18-(18)-(18)b19r(18)-18----------18-16-------18-16-|
|----------------------------------------------------|
|----------------------------------------------------|
|----------------------------------------------------|
|
|  H                          H
|----------------------------------------------------|
|----------------------------------------------------|
|--6--------------------------4----------------------|
|--6--------------------------2----------------------|
|--4--------------------------0----------------------|
|----------------------------------------------------|


  Bb5                     F5
   S  S  S  S  S  S  S  S  S  S  S  S  S  S  S  S
|-19-16----------------16----------11-14-11-------|
|-------16----------16----------11----------11----|
|----------16----16----------11----------------11-|
|-------------18----------13----------------------|
|-------------------------------------------------|
|-------------------------------------------------|
|
|  H                       H
|-------------------------------------------------|
|-------------------------------------------------|
|--8-----------------------8----------------------|
|--6-----------------------8----------------------|
|--------------------------6----------------------|
|-------------------------------------------------|


  E5                         C5
                    ~~~~
   E  +S   +S      +E   S  S  S  S  S  S  S  S  S  S
|----------------------------------------------------|
|-------------------------17-18-17-------20-17-------|
|-19-(19)-(19)b20r(19)-19----------19-17-------19-17-|
|----------------------------------------------------|
|----------------------------------------------------|
|----------------------------------------------------|
|
|  H                          H
|----------------------------------------------------|
|----------------------------------------------------|
|--7--------------------------3----------------------|
|--7--------------------------3----------------------|
|--5--------------------------1----------------------|
|----------------------------------------------------|


  G5                      D5
   S  S  S  S  S  S  S  S  S  S  S  S  S  S  S  S
|-20-17-------22-20-17-22-20-17-------17----------|
|-------20-18-------------------20-18----20-18-17-|
|-------------------------------------------------|
|-------------------------------------------------|
|-------------------------------------------------|
|-------------------------------------------------|
|
|  H                       H
|-------------------------------------------------|
|-------------------------------------------------|
|--5-----------------------5----------------------|
|--3-----------------------5----------------------|
|--------------------------3----------------------|
|-------------------------------------------------|


  E5                         G5/C
                    ~~~~
   E  +S   +S      +E   S  S  S  S  S  S  S  S  S  S
|----------------------------------------------------|
|-------------------------17-18-17-15----------------|
|-19-(19)-(19)b20r(19)-19-------------17-15-14-17-15-|
|----------------------------------------------------|
|----------------------------------------------------|
|----------------------------------------------------|
|
|  H                          H
|----------------------------------------------------|
|----------------------------------------------------|
|--7--------------------------5----------------------|
|--7--------------------------3----------------------|
|--5--------------------------1----------------------|
|----------------------------------------------------|


  G5                      D5
                              |--3--|
   S  S  S  S  S  S  S  S  E  S  S  S  E  E
|-------------------------------------------|
|-------------------------------------------|
|-14----------------------14-12-14-12-------|
|----17-15-14-12-14-15-17-------------15-14-|
|-------------------------------------------|
|-------------------------------------------|
|
|  H                       H
|-------------------------------------------|
|-------------------------------------------|
|--5-----------------------5----------------|
|--3-----------------------5----------------|
|--------------------------3----------------|
|-------------------------------------------|


 Break
  E5                F5E5        D5  E5                          Bb5
  Gtr IV                            Gtr III
    ~~~~                            PM----------------------|
    Q        H.                     E S S S S S S S S S S S S S S
|---------------------------------|-------------------------------|
|---------------------------------|-------------------------------|
|---------------------------------|-------------------------------|
|-[12]----------------------------|-------------------------------|
|---------------------------------|-0-0---0-0---0-0---0---0-0---x-|
|---------------------------------|-0-0---0-0---0-0---0---0-0---x-|
|
| Gtr I
|      PM---------|     PM----|       PM--------------------|
|      |-3-| |-3--|
|   E  S S S S  S S E E S S S S E   E S S S S S S S S S S S S S S
|---------------------------------|-------------------------------|
|---------------------------------|-------------------------------|
|---7---------------8-7---------5-|-7-----------------------------|
|------0-0-0-0--0-0-----0-0-0-0---|-------------------------------|
|---------------------------------|-----------------------------6-|
|---------------------------------|---0---0-0---0-0---0---0-0---6-|


  E5             F5E5            N.C.
                                   PM|   PM|   PM|    PM|
  E E     H.                     E S S E S S E S S  E S  S
|------------------------------|---------------------------|
|------------------------------|---------------------------|
|------------------------------|---------------------------|
|------------------------------|---------------------------|
|-0----------------------------|-5-4-5-7-5-7-8-7-8-10-8-10-|
|-0----------------------------|---------------------------|
|
|   PM---------|     PM----|       PM|   PM|   PM|    PM|
|   |-3-| |-3--|
| E S S S S  S S E E S S S S E   E S S E S S E S S  E S  S
|------------------------------|---------------------------|
|------------------------------|---------------------------|
|-7--------------8-7---------5-|---------------------------|
|---0-0-0-0--0-0-----0-0-0-0---|---------------------------|
|------------------------------|-5-4-5-7-5-7-8-7-8-10-8-10-|
|------------------------------|---------------------------|


   Verse
    E5        F5E5        D5  E5                        Bb5
    Gtr III
      PM----|     PM----|       PM--------------------|
    E S S S S E E S S S S E   E S S S S S S S S S S S S E
||--------------------------|------------------------------|
||o-------------------------|------------------------------|
||--------------------------|------------------------------|
||--7---------8-7---------5-|-7----------------------------|
||o-5---------6-5---------3-|-5-------------------------6--|
||----0-0-0-0-----0-0-0-0---|---0---0-0---0-0---0---0-0-6--|
|
|   Gtr I
|     PM----|     PM----|       PM--------------------|
|   E S S S S E E S S S S E   E S S S S S S S S S S S S E
||--------------------------|------------------------------|
||o-------------------------|------------------------------|
||--7---------8-7---------5-|-7----------------------------|
||----0-0-0-0-----0-0-0-0---|------------------------------|
||o-------------------------|---------------------------6--|
||--------------------------|---0---0-0---0-0---0---0-0-6--|


                            1.                                    2.
  E5        F5E5        D5  N.C.                                  F#5
    PM----|     PM----|     PM----|
  E S S S S E E S S S S E   S S S S  S  S  E  S S  E  S  S  E     E E E E H
|-------------------------|------------------------------------||--------------|
|-------------------------|-----------------------------------o||--------------|
|-------------------------|------------------10-9-10-14-12-14--||--------------|
|-7---------8-7---------5-|---------12-10-12-------------------||--------------|
|-5---------6-5---------3-|-----------------------------------o||-2---2--------|
|---0-0-0-0-----0-0-0-0---|-0---0-0----------------------------||-2---2--------|
|
|   PM----|     PM----|     PM----|
| E S S S S E E S S S S E   S S S S  S  S  E  S S  E  S  S  E     E E E E H
|-------------------------|------------------------------------||--------------|
|-------------------------|-----------------------------------o||--------------|
|-7---------8-7---------5-|-------------------7-5--7-10--9-10--||--------------|
|---0-0-0-0-----0-0-0-0---|-0---0-0--7--5--7-------------------||--------------|
|-------------------------|-----------------------------------o||-2---2--------|
|-------------------------|------------------------------------||-2---2--------|


 Out-Chorus
  E BbA5G5E G5F#F5        G5            E BbA5G5E G5F#F5      F#G5    D5 C#5
                    PM--|     PM----|                     PM|     PM|
  E E E E E E E E   E E E  E  E E E E   E E E E E E E E   E E E E E E  E E
|-----------------|-------------------|-----------------|------------------|
|-----------------|-------------------|-----------------|------------------|
|-----------------|-------------------|-----------------|------------------|
|-----------------|-------------------|-----------------|------------------|
|---6-5-3---3-2-1-|--------3----------|---6-5-3---3-2-1-|-----2s3-----10s9-|
|-0-6-5-3-0-3-2-1-|-0-0-0--3--0-0-0-0-|-0-6-5-3-0-3-2-1-|-0-0-2s3-0-0-10s9-|
|
|                   PM--|     PM----|                     PM|     PM|
| E E E E E E E E   E E E  E  E E E E   E E E E E E E E   E E E E E E  E E
|-----------------|-------------------|-----------------|------------------|
|-----------------|-------------------|-----------------|------------------|
|-----------------|-------------------|-----------------|------------------|
|-----------------|-------<2>---------|-----------------|------------------|
|---6-5-3---3-2-1-|-------<2>---------|---6-5-3---3-2-1-|-----2s3-----10s9-|
|-0-6-5-3-0-3-2-1-|-0-0-0-----0-0-0-0-|-0-6-5-3-0-3-2-1-|-0-0-2s3-0-0-10s9-|


  C5         D5          E BbA5G5E G5F#F5      F#G5    D5 C#5
  Gtrs I, III
                                           PM|     PM|
  W           W          E E E E E E E E   E E E E E E  E E
|----------|-----------|-----------------|------------------|
|----------|-----------|-----------------|------------------|
|----------|-----------|-----------------|------------------|
|-8--------|-10--------|-----------------|------------------|
|-8--------|-10--------|---6-5-3---3-2-1-|-----2s3-----10s9-|
|-8--------|-10--------|-0-6-5-3-0-3-2-1-|-0-0-2s3-0-0-10s9-|


  C5         D5          E BbA5G5E G5F#F5      F#G5    D5 C#5
                                           PM-------------|
  W           W          E E E E E E E E   E E E E E E  E E
|----------|-----------|-----------------|------------------|
|----------|-----------|-----------------|------------------|
|----------|-----------|-----------------|------------------|
|-8--------|-10--------|-----------------|------------------|
|-8--------|-10--------|---6-5-3---3-2-1-|-----2-3-----10-9-|
|-8--------|-10--------|-0-6-5-3-0-3-2-1-|-0-0-2-3-0-0-10-9-|


  C5         D5          C#             C
  Gtr III
  W           W          W               H      H
|----------|-----------|--------------|---------------|
|----------|-----------|--------------|---------------|
|----------|-----------|--------------|---------------|
|-8--------|-10--------|-9------------|--8------------|
|-8--------|-10--------|--------------|---------------|
|-8--------|-10--------|-9------------|--8----/12\----|
|
| Gtr I
| W           W          W         a     H      H
|----------|-----------|--------------|---------------|
|----------|-----------|--------------|---------------|
|----------|-----------|-7--------(7)s|=10------------|
|-8--------|-10--------|--------------|---------------|
|-8--------|-10--------|-5--------(5)s|==8----/12\----|
|-8--------|-10--------|--------------|-------/12\----|


  E BbA5G5E G5F#F5
  Gtrs I, III
                    PM--|         ~~~~~~~~PM--|
  E E E E E E E E   E E E  E     +E       E E E
|-----------------|-----------------------------|
|-----------------|-----------------------------|
|-----------------|-----------------------------|
|-----------------|-----------------------------|
|---6-5-3---3-2-1-|-------[5]b6r([5])b5.5-------|
|-0-6-5-3-0-3-2-1-|-0-0-0-----------------0-0-0-|


  E BbA5G5E G5F#F5  F5
                    PM--|
                    |-3-|
  E E E E E E E E   q q q H
|-----------------|------------*|
|-----------------|------------*|
|-----------------|------------*|
|-----------------|------------*|
|---6-5-3---3-2-1-|-1-1-1------*|
|-0-6-5-3-0-3-2-1-|-1-1-1------*|


Duration Legend
---------------
W - whole; H - half; Q - quarter; E - 8th; S - 16th; T - 32nd; X - 64th; a - acciaccatura
+ - note tied to previous; . - note dotted; .. - note double dotted
Uncapitalized letters represent notes that are staccato (1/2 duration)
Irregular groupings are notated above the duration line
Duration letters will always appear directly above the note/fret number it represents the
duration for.  Duration letters with no fret number below them represent rests.  Multi-
bar rests are notated in the form Wxn, where n is the number of bars to rest for.  Low
melody durations appear below the staff

Tablature Legend
----------------
 h   - hammer-on
 p   - pull-off
 b   - bend
 pb  - pre-bend
 r   - bend release (if no number after the r, then release immediately)
 /\  - slide into or out of (from/to "nowhere")
 s   - legato slide
 S   - shift slide
  - natural harmonic
[n]  - artificial harmonic
n(n) - tapped harmonic
 ~   - vibrato
 tr  - trill
 T   - tap
 TP  - trem. picking
 PM  - palm muting
\n/  - tremolo bar dip; n = amount to dip
 \n  - tremolo bar down
 n/  - tremolo bar up
/n\  - tremolo bar inverted dip
 =   - hold bend; also acts as connecting device for hammers/pulls
 <>  - volume swell (louder/softer)
 x   - on rhythm slash represents muted slash
 o   - on rhythm slash represents single note slash

Misc Legend
-----------
 |  - bar
||  - double bar
||o - repeat start
o|| - repeat end
*|  - double bar (ending)
 :  - bar (freetime)
 $  - Segno
 &  - Coda
Tempo markers -  = BPM(8/16=s8/s16), where s8 = swing 8ths, s16 = swing 16ths


            
            
Suggest correction
Creating personal tab
Creating personal tab
You can edit any tab online and save it as your Personal.

You can edit, replace or remove any tab part or add personal notes – all changes will be seen only by you.

Personal tabs can be accessed anytime from any device, even offline.
Learn more »
comments
print report bad tab
11 comments total. Showing first comments.
0 reply
Tias 181 Dec 24, 2006 04:16 AM

Looks good, but its too big to read it well. Its To Complicated so make it easier

greet tab

grtz Tias

0 reply
Yellow Eyes 10 Mar 18, 2007 11:59 AM

Awesome tab. Easy to follow and read. Love that you included the harmonies and guitar 2 parts. Not sure if they fit yet, but the part I play is awesome. Nice solo too.

+1 reply
metalmann577 30 Apr 15, 2007 08:12 AM

awesome shtuff

guest
You may want to rate the tab now too:
select rating
Wanna post a correction for this tab? Suggest correction