Oops, an error
Loading. Please wait.

Smile Pretty For The Devil bass

version 2
version 2

Whole song

Interactive

105 views 1 this week
no commentswrite comment
1 2 3 4 5
3 more votes to show rating
add to favorites
×
Save as Personal and add changes to this tab that will be seen only by you. Learn more ›
×
You can save this tab as Personal to edit and correct it or add notes. All changes will be seen only by you. Learn more »
launch autoscroll
font size
0
reset
guitar tuner
backing track
0:00
0:00
edit
Autoscroll
slow
fast
+/-
esc
set tempo
stop
Author
Difficulty
Children of Bodom - Smile Pretty For The Devil (Blooddrunk)
200 BPM - 4/4
4-string bass - D-standard tuning (DGCF)
Transcribed 100% by ear by Krakenbrau
Please send questions, comments, corrections to krakenbrau@gmail.com.

Legend:                 Timing:
\ - slide/bend down     W - whole note          W. - dotted whole note
/ - slide/bend up       H - half note           H. - dotted half note
b - bend                Q - quarter note        Q. - dotted quarter note
h - hammer-on           E - eighth note         E. - dotted eighth note
p - pull-off            S - sixteenth note      S. - dotted sixteenth note
~ - sustain             N - thirty-second note  N. - dotted thirty-second note
+ - harmonic            ' - thirty-second note triplet (3/S)
                        t - sixteenth note triplet (3/E)
                        T - eighth note triplet (3/Q)
                        T.- quarter note triplet (3/H)

Notes:
Feel pretty good about this one.  I think there might be a few
variations in the turnarounds that I missed.  If you can figure
them out, let me know.


Intro
F|-----------------|-----------------|-----------------|-----------------|
C|-----------------|-----------------|-----------------|-----------------|
G|---5-7---7-8---7-|-7-----7-7-----7-|-7-7-5---5-7---8-|-8-----8-8-----8-|
D|-0-----0-----0---|---0-0-----0-0---|-------0-----0---|---0-0-----0-0---|
   E E E E E E E E   E E E E E E E E   E E E E E E E E   E E E E E E E E

                                     |2/4      |4/4
F|-----------------|-----------------|---------|------------|-----------------|
C|-----------------|-----------------|---------|------------|-----------------|
G|-8-5-7---7-8---7-|-7-----7-7-----7-|-7-------|------------|-----------------|
D|-------0-----0---|---0-0-----0-0---|---0-0---|0~~~~~~~~~~-|-0~~-0~~-0~~-0~~-|
   E E E E E E E E   E E E E E E E E   E E Q    W             Q   Q   Q   Q

F|-----------------|-----------------|
C|-----------------|-----------------|
G|-----------------|-----------------|
D|-0~~-0~~-0~~-0~~-|-0~~-0~~-0~~-0~~-|
   Q   Q   Q   Q     Q   Q   Q   Q

Intro Verse Riff
F|-----------------|-----------------|-----------------|-----------------|
C|-----------------|-------5---------|-----------------|-------5-------9-|
G|---5-7---7-8---5-|-7---------5---5-|---5-7---7-8---5-|-7---------5-7---|
D|-0-----0-----0---|---0-0---0---0---|-0-----0-----0---|---0-0---0-------|
   E E E E E E E E   E E E E E E E E   E E E E E E E E   E E E E E E E E

F|-----------------|-----------------|-----------------|-----------------|
C|-----------------|-------5---------|-----------------|-----------7-6-5-|
G|---5-7---7-8---5-|-7---------5---5-|---5-7---7-8---5-|-7-----8-7-------|
D|-0-----0-----0---|---0-0---0---0---|-0-----0-----0---|---0-0-----------|
   E E E E E E E E   E E E E E E E E   E E E E E E E E   E E E E E E E E

Verse 1/2
 |S
F|-----------------|-----------------|-----------------|-----------------|
C|-----------------|-------5---------|-----------------|-------5-------9-|
G|---5-7---7-8---5-|-7---------5---5-|---5-7---7-8---5-|-7---------5-7---|
D|-0-----0-----0---|---0-0---0---0---|-0-----0-----0---|---0-0---0-------|
   E E E E E E E E   E E E E E E E E   E E E E E E E E   E E E E E E E E

F|-----------------|-----------------|-----------------|-------------------|
C|-----------------|-----------------|-----------------|--------------10-9-|
G|-5~~~~~~~~~~~~~~-|---------3~~~~~~-|---5-7---7-8---5-|-7-----10-9-8------|
D|-----------------|-3~~~~~~---------|-0-----0-----0---|---0-0-------------|
   W                 H       H         E E E E E E E E   E E E  E E E  E E

F|-----------------|-----------------|-----------------|-----------------|
C|-----------------|-------5---------|-----------------|-------5-------9-|
G|---5-7---7-8---5-|-7---------5---5-|---5-7---7-8---5-|-7---------5-7---|
D|-0-----0-----0---|---0-0---0---0---|-0-----0-----0---|---0-0---0-------|
   E E E E E E E E   E E E E E E E E   E E E E E E E E   E E E E E E E E

                                                       |To Coda
F|-----------------|-----------------|-----------------|-------------------|
C|-----------------|-----------------|-----------------|--------------10-9-|
G|-----------------|-----------------|---5-7---7-8---5-|-7-----10-9-8------|
D|-2~~~~~~~~~~~~~~-|-1~~~~~~~~~~~~~~-|-0-----0-----0---|---0-0-------------|
   W                 W                 E E E E E E E E   E E E  E E E  E E

Interlude
F|-----------------|-----------------|-----------------|-----------------|
C|-----------------|-------------4-5-|-----------------|---------2~~-1~~-|
G|-2---------------|-1---------5-----|-2---------------|-3~~-2~~---------|
D|---0-2-3-0-0-0-0-|---0-2-3-5-------|---0-2-3-0-0-0-0-|-----------------|
   E E E E E E E E   E E E E E E E E   E E E E E E E E   Q   Q   Q   Q

                                                                         |DS al Coda
F|-----------------|-----------------|-----------------|-----------------|
C|-----------------|-------------4-5-|-----------------|---------2~~-0~~-|
G|-2---------------|-1---------5-----|-2---------------|-----3~~---------|
D|---0-2-3-0-0-0-0-|---0-2-3-5-------|---0-2-3-0-0-0-0-|-0~~-------------|
   E E E E E E E E   E E E E E E E E   E E E E E E E E   Q   Q   Q   Q

Coda (Chorus 1)
F|-----------------|-----------------|-----------------|-----------------|
C|-----------------|*----------------|-----------------|-----------------|
G|-7---------------|*----------------|-----------------|-----------------|
D|---0-0-0-3-3-3-1~|~~-1-1-1-1-1-1-1-|-1-1-1-1-3-3-3-1~|~~-1-1-1-1-1-1-1-|
   E E E E E E E Q     E E E E E E E   E E E E E E E Q     E E E E E E E

F|-----------------|-----------------|-----------------|-----------------|
C|-----------------|-----------------|---------5-5-----|-----------------|
G|---------------7~|~~---7---7---7---|-7---5-------5-5-|-7---7---7---7---|
D|-1-1-1-1-3-3-7---|---0---0---0---0-|---0---0---------|---0---0---0---0-|
   E E E E E E E Q     E E E E E E E   E E E E E E E E   E E E E E E E E

                  1|2
F|-----------------|-----------------|
C|---------5------*|---------5-5-----|
G|-7---5----------*|-7---5-------5-5-|
D|---0---0---3-3-1~|---0---0---------|
   E E E E E E E Q   E E E E E E E E

Interlude
F|-----------------|-----------------|-----------------|-----------------|
C|-----------------|-------------4-5-|-----------------|---------2~~-1~~-|
G|-2---------------|-1---------5-----|-2---------------|-3~~-2~~---------|
D|---0-2-3-0-0-0-0-|---0-2-3-5-------|---0-2-3-0-0-0-0-|-----------------|
   E E E E E E E E   E E E E E E E E   E E E E E E E E   Q   Q   Q   Q

F|-----------------|-----------------|-----------------|-----------------|
C|-----------------|-------------4-5-|-----------------|-----4-5-----4-5-|
G|-2---------------|-1---------5-----|-2---------------|---5-------5-----|
D|---0-2-3-0-0-0-0-|---0-2-3-5-------|---0-2-3-0-0-0-0-|-7-------7-------|
   E E E E E E E E   E E E E E E E E   E E E E E E E E   E E E E E E E E

F|-----------------|-----------------|-----------------|-----------------|
C|-----------------|-----------------|-----------------|-----------------|
G|-----------------|-----------------|-----------------|-----------------|
D|-0~~~~~~~~~~~~~~-|-0~~~~~~~~~~~~~~-|-0~~~~~~~~~~~~~~~|~~~~~~~~~~~~~~~~-|
   W                 W                 W                (W)

Verse 3
F|-----------------|-----------------|-----------------|-----------------|
C|-----------------|-----------------|-----------------|-----------------|
G|---5-7---7-8-----|-----------------|---5-7---7-8-----|-----------------|
D|-0-----0---------|-----------------|-0-----0---------|-----------------|
   E E E E E E                         E E E E E E

F|-----------------|-----------------|-----------------|-------------------|
C|-----------------|-----------------|-----------------|--------------10-9-|
G|-5~~~~~~~~~~~~~~-|---------3-3-3-3-|---5-7---7-8---5-|-7-----10-9-8------|
D|-----------------|-3-3-3-3---------|-0-----0-----0---|---0-0-------------|
   W                 E E E E E E E E   E E E E E E E E   E E E  E E E  E E

F|-----------------|-----------------|-----------------|-----------------|
C|-----------------|-------5---------|-----------------|-------5-------9-|
G|---5-7---7-8---5-|-7---------5---5-|---5-7---7-8---5-|-7---------5-7---|
D|-0-----0-----0---|---0-0---0---0---|-0-----0-----0---|---0-0---0-------|
   E E E E E E E E   E E E E E E E E   E E E E E E E E   E E E E E E E E

F|-----------------|-----------------|-----------------|-------------4---|
C|-----------------|-----------------|-----------------|---------5-5---3~|
G|-----------------|-----------------|---5-7---7-8---5-|-7---7-----------|
D|-2~~~~~~~~~~~~~~-|-1~~~~~~~~~~~~~~-|-----------------|-----------------|
   W                 W                   E E   E E   E   E   E   E E E Q

Chorus 2
F|-----------------|-----------------|-----------------|-----------------|
C|*~---------------|-----------------|-----------------|-----------------|
G|*----------------|-----------------|-----------------|---------------7~|
D|---1-1-1-1-1-1-1-|-1-1-1-1-3-3-3-1~|~~-1-1-1-1-1-1-1-|-1-1-1-1-3-3-7---|
     E E E E E E E   E E E E E E E Q     E E E E E E E   E E E E E E E Q
                      2nd time: D|-0~|~~-1-1-1-0-1-1-1-|-0-1-1-1

                                                                        1|
F|-----------------|-----------------|-----------------|-----------------|
C|-----------------|---------5-5-----|-----------------|---------5------*|
G|~~---7---7---7---|-7---5-------5-5-|-7---7---7---7---|-7---5----------*|
D|---0---0---0---0-|---0---0---------|---0---0---0---0-|---0---0---3-3-1~|
     E E E E E E E   E E E E E E E E   E E E E E E E E   E E E E E E E Q

                   |Half-time (2/4, 100 BPM) (Bridge)
F|-----------------|-----------------|-----------------|-----------------|
C|---------5-5-----|-----------------|-----------------|-----------------|
G|-7---5-------5-5-|-----------------|-----------------|-7-7-5-5-7-7---5-|
D|---0---0---------|-0-0-0-0-0-0-----|-----------------|-----------------|
   E E E E E E E E   S S S S S S                         S S S S S E   E

F|-----------------|-----------------|-----------------|-----------------|
C|-----------------|-----------------|-----------------|---------5-5-----|
G|---5-------------|-----------------|-----------------|-7-7-5-5-------5-|
D|-----------------|-0-0-0-0-0-0-----|-----------------|-----------------|
     E               S S S S S S                         S S S S S E   E

F|-----------------|-----------------|-----------------|-----------------|
C|---------5-5-----|-----------------|-----------------|-----------------|
G|---5---5-----5-5-|-----------------|---------3-3-----|---------3-3-3---|
D|-----------------|-5-5-3-3-5-5-5-3-|-3-3-3-3-----3-3-|-5-5-3-3-------3-|
     E   S S S S S   S S S S S S S S   S S S S S S S S   S S S S S S S S

F|-----------------|-----------------|-----------------|-----------------|
C|-----------------|-----------------|-----------------|-----------------|
G|---------3-3-----|-----------------|---------3-3-----|-----0-0-1-1-1-3~|
D|-3-3-3-3-----3-3-|-5-5-3-3-5-5-5-3-|-3-3-3-3-----3-3-|-3-3-------------|
   S S S S S S S S   S S S S S S S S   S S S S S S S S   S S S S S S S E

F|-----------------|-----------------|-----------------|-----------------|
C|-----------------|-----------------|---------3-3-----|---------3-3-3---|
G|~~-3-3-3-3-3-3-3-|-5-5-3-3-5-5-5-3-|-3-3-3-3-----3-3-|-5-5-3-3-------3-|
D|-----------------|-----------------|-----------------|-----------------|
     S S S S S S S   S S S S S S S S   S S S S S S S S   S S S S S S S S

F|-----------------|-----------------|-----------------|-----------------|
C|---------3-3-----|-----------------|---------3-3-----|---------3-3-3-5~|
G|-3-3-3-3-----3-3-|-5-5-3-3-5-5-5-3-|-3-3-3-3-----3-3-|-5-5-3-3---------|
D|-----------------|-----------------|-----------------|-----------------|
   S S S S S S S S   S S S S S S S S   S S S S S S S S   S S S S S S S E

                   |Solo 1
F|-----------------|-----------------|-----------------|-----------------|
C|~~-5-5-5-5-5-5-5-|*----------------|-----------------|-----------------|
G|-----------------|*----------------|-----------------|-----------------|
D|-----------------|-5---5-------5-5-|-5-3-3-3-3-1-1-1-|-5---5-------5-5-|
     S S S S S S S   E   E       S S   S S S S S S S S   E   E       S S

F|-----------------|-----------------|-----------------|-----------------|
C|-----------------|-----------------|-----------------|-----------------|
G|---3-3-3-3-------|-----------------|-----------------|-5~~~~~~~~~~~~~~-|
D|-5---------1-1-1-|-5---5-------5-5-|-5-3-3-3-3-1-1-1-|-----------------|
   S S S S S S S S   E   E       S S   S S S S S S S S   H

                 x2|Solo 2
F|-----------------|-----------------|-----------------|-----------------|
C|----------------*|*----------------|-----------------|-----------------|
G|----------------*|*----------------|-----------------|-----------------|
D|-6~~~~~~-4~~~~~~-|-4---4-------4-4-|-4-2-2-2-2-0-0-0-|-4---4-------4-4-|
   Q       Q         E   E       S S   S S S S S S S S   S   S       S S

F|-----------------|-----------------|-----------------|-----------------|
C|-----------------|-----------------|-----------------|-----------------|
G|---2-2-2-2-------|-----------------|-----------------|-----------------|
D|-4---------0-0-0-|-4---4-------4-4-|-4-2-2-2-2-0-0-0-|-1~~~~~~~~~~~~~~-|
   S S S S S S S S   E   E       S S   S S S S S S S S   H

                 x2|Solo 3
F|-----------------|-----------------|-----------------|-----------------|
C|----------------*|*----------------|-----------------|-----------------|
G|----------------*|*5---5-------5-5-|-5-3-3-3-3-1-1-1-|-5---5-------5-5-|
D|-0~~~~~~~~~~~~~~-|-----------------|-----------------|-----------------|
   H                 E   E       S S   S S S S S S S S   E   E       S S

F|-----------------|-----------------|-----------------|-----------------|
C|---3-3-3-3-------|-----------------|-----------------|-----------------|
G|-5---------1-1-1-|-5---5-------5-5-|-5-3-3-3-3-1-1-1-|-2~~~~~~~~~~~~~~-|
D|-----------------|-----------------|-----------------|-----------------|
   S S S S S S S S   E   E       S S   S S S S S S S S   H

                 x2|Ending
F|-----------------|-----------------|-----------------|-----------------|
C|----------------*|-----------------|-----2-3---------|-----2-3-----2-3-|
G|-1~~~~~~~~~~~~~~*|-5~~~~~~---------|---3-------------|---3-------3-----|
D|-----------------|-----------------|-5---------------|-5-------5-------|
   H                 Q                 S S S S           S S S S S S S S
F|-----------------|
C|-----------------|
G|-5~~~~~\\--------|
D|-----------------|
   Q

            
            
Suggest correction
Creating personal tab
Creating personal tab
You can edit any tab online and save it as your Personal.

You can edit, replace or remove any tab part or add personal notes – all changes will be seen only by you.

Personal tabs can be accessed anytime from any device, even offline.
Learn more »
Give kudos to tab author, rate the tab!
1 2 3 4 5
comments
print report bad tab
guest
You may want to rate the tab now too:
select rating
Wanna post a correction for this tab? Suggest correction