Oops, an error
Loading. Please wait.

Youre Better Off Dead guitar pro

version 2
version 2
5,060 views 1 this week
3 commentsread comments
1 2 3 4 5
x 5
add to favorites
guitar tuner
Autoscroll
slow
fast
+/-
esc
set tempo
stop
"Youre Better Off Dead"
demo version
Play now

or get full version for Free

×
Get full version now!
Learn and play this song
in Tab Pro
Try for free

or get $10 off Welcome Bonus

Get welcome bonus
Get access to Tab Pro version of “Youre Better Off Dead”!
Tab Pro is a premium guitar tab service, available on PC, Mac, iOS and Android
TRY FOR FREE
To download “Youre Better Off Dead” Guitar Pro tab click button below
Please note that you must have Guitar Pro software installed on your
computer in order to view this file.
Suggest correction
comments
report bad tab
3 comments total.
0 reply
maximus69er 41 Apr 19, 2008 08:25 PM

the sweep picking parts are not all major, some are agmented diminished and dominant, it was a brilliant tab, considering how hard the god damn song is

0 reply
boblafro 72 Jun 17, 2008 09:48 AM

Correct notes for the sweep picking part are:

------16-19-16----------16-17-16---
---17----------17----17----------17
16----------------16---------------

------14-19-14----------14-17-14---
---15----------15----15----------15
16----------------16---------------

and the second one is alternate picking

---------17----------16-17-21-17-16-
15-17-19----19-17-19----------------
------------------------------------

------16-19-16----------------------
17-19----------19-------15-19-15----
------------------16-18----------18-

Last riff is different the second time:

------16-19-16----------------------
17-19----------19-------------------
------------------14-16-18-16-14----
---------------------------------18-

0 reply
keifferesp 16 Mar 26, 2009 12:39 PM

Good tab... but what about the crazy ass riffing in the intro Alexi shows you on the YoungGuitar lesson?

guest