Oops, an error
Loading. Please wait.

Pass Out Of Existance tab

800 views 1 this week
1 commentread comment
1 2 3 4 5
1 last vote to show rating
add to favorites
×
Save as Personal and add changes to this tab that will be seen only by you. Learn more ›
×
You can save this tab as Personal to edit and correct it or add notes. All changes will be seen only by you. Learn more »
launch autoscroll
font size
0
reset
how to read this tab
guitar tuner
edit
Autoscroll
slow
fast
+/-
esc
set tempo
stop
Author
Artist: Chimaira
Song: Pass Out Of Existance
Album: Pass Out Of Existance


Tuning: 7-String (AEADGBE)


b = bend
/ = slide
^ = pinch harmonic
/\/\/ = vibrato
h = hammer on
p = pull off



E--------------------------------------------------------
B--------------------------------------------------------
G--------------------------------------------------------
D--------------------------------------------------------
A--------------------------------------------------------
E--------------------------------------------------------
A---0---1---0-----1/11-------0---1---0-----1/11-----0--1-

E--------------------------------------------------------
B--------------------------------------------------------
G--------------------------------------------------------
D--------------------------------------------------------
A--------------------------------------------------------
E--0----------------------------0------------------------
A--0---------6---5---2--------0---6---5---1--------------

E--------------------------------------------------------
B--------------------------------------------------------
G--------------------------------------------------------
D--------------------------------------------------------
A-----------------1--------------------------------------
E-----------------1--------------------------------------
A--0--0--0--0---1----------------------------------------

E--------------------------------------------------------
B--------------------------------------------------------
G--------------------------------------------------------
D--------------------------------------------------------
A------------------------7-------------------------------
E------------------------6-------------------------------
A--0---1---0---1---------------0--0--0--0--0---4--4--4---

E--------------------------------------------------------
B--------------------------------------------------------
G--------------------------------------------------------
D--------------------------------------------------------
A-------------------7------------------------------------
E-------------------6------------------------------------
A--0---1---0---1-------0--0--0--0--0---4--4--4---5--5--5-

back to beginning then...

E--------------------------------------------------------
B--------------------------------------------------------
G--------------------------------------------------------
D--------------------------------------------------------
A-----------------------1------------------1-------------
E--0------------- -0---1-----0---0-0-0--1----------------
A--0-----0---0-0-0---1-----0---0-0-0--1-----1b-----------

E--------------------------------------------------------
B--------------------------------------------------------
G--------------------------------------------------------
D--------------------------------------------------------
A--------------------------------------------------------
E--0-----------------------------------------0--1--0--1--
A--0----6-6-6-6----2-------6-6-6-6---1--0--1--0--1-------

E--------------------------------------------------------
B--------------------------------------------------------
G--------------------------------------------------------
D--------------------------------------------------------
A----------------------1------------------1--------------
E----------------------1------------------1--------------
A--0-----0---0-0-0---1-----0---0-0-0--1-----1^ b---------

its hard to hear the slow part but i think it goes something like this....

E--------------------------------------------------------
B--------------------------------------------------------
G--------------------------------------------------------
D--------------7-------10--10h12----9-----9/3------2-----
A-------0------------------------------------------------
E--------------------------------------------------------
A-0------------------------------------------------------

E--------------------------------------------------------
B--------------------------------------------------------
G--------------------------------------------------------
D----3---------------5-----------------------------------
A--------------------------------------------------------
E-----------5-----------------7--------------------------
A----------------------------------------3/5-------------

back to the beginning exept on the one part....


(ONE LONG BEND WHILE STRIKING THE 11TH FRET)
E--------------------------------------------------------
B--------------------------------------------------------
G--------------------------------------------------------
D--------------------------------------------------------
A--------11b--11b--11b--11b------------------------------
E--------11b--11b--11b--11b------------------------------
A--------11b--11b--11b--11b------------------------------

            
            
Suggest correction
Creating personal tab
Creating personal tab
You can edit any tab online and save it as your Personal.

You can edit, replace or remove any tab part or add personal notes – all changes will be seen only by you.

Personal tabs can be accessed anytime from any device, even offline.
Learn more »
Give kudos to tab author, rate the tab!
1 2 3 4 5
comments
print report bad tab
1 comment total.
0 reply
podpants 10 Oct 28, 2003 07:00 PM

the first riff goes like this-
-----------------------------------
-----------------------------------
-----------------------------------
-----------------------------------
/12--0--2-1-0-/12--0-2-1-0-/12--0-1
/12--0--2-1-0-/12--0-2-1-0-/12--0-1

0--2-1-0-/12--0-2-1-0-/12--0-1 x2
0--2-1-0-/12--0-2-1-0-/12--0-1

0--6-5-2--0-6-5-1--0-0-0-0
0--6-5-2--0-6-5-1--0-0-0-0

dont argue. this is right

guest
You may want to rate the tab now too:
select rating
Wanna post a correction for this tab? Suggest correction