Oops, an error
Loading. Please wait.

Pure Hatred tab

version 2
version 2

Whole song

Interactive

7,078 views 3 this week
1 commentread comment
1 2 3 4 5
x 4
add to favorites
×
Save as Personal and add changes to this tab that will be seen only by you. Learn more ›
×
You can save this tab as Personal to edit and correct it or add notes. All changes will be seen only by you. Learn more »
launch autoscroll
font size
0
reset
how to read this tab
guitar tuner
backing track
0:00
0:00
edit
Autoscroll
slow
fast
+/-
esc
set tempo
stop
Drop C tuning CGCFAD

I AM AWARE THAT THIS IS MOST LIKELY RIDDLED WITH MISTAKES
IT WAS LIKE MY FIRST TAB ON HERE AND I SUCKED BACK THEN.
MY APOLOGIES.


INTRO

I just do a big pick slide and then 

|-------|
|-------|  Hold this not until the next part of the intro comes in
|-------|
|---1---|
|---1---|
|---1---|


Part 2

|---------------------|
|---------------------|
|---------------------|
|--1--4--5--2-2-2-----|
|--1--4--5--2~2-2-----|
|--1--4--5--2~2-2-----|x8


or

|---------------------------|
|---------------------------| tremolo pick the intro
|---------------------------| 
|---------------------------| 
|---------------------------|
|-1111-4444-5555-22222222---|


INTRO CHORUS

"I have told you..."
 "Things need to change, never listen ..." etc
|--------------------------------------|
|--------------------------------------|
|--------------------------------------|
|--1-------4-------5--------22-2-2-----| 
|--1-------4-------5--------22~2-2-----|
|--1-------4-------5--------22~2-2-----|x4


VERSE 1
                             "..sick, nothing has changed"
|------------------------|    |------------------------|
|------------------------|    |------------------------|
|------------------------|    |------------------------|
|--1--4--5--2-222220-----|    |---------------2--------|
|--1--4--5--2~222220-----|    |---------------2--------|
|--1--4--5--2~222220-----|x4  |---4*/\/\/\/\--2--------|
PM            ......


PRECHORUS - "I, hate, everyone..." listen for the srum pattern here

|-----------------------------------------|  they are 1's, not 11's
|-----------------------------------------|
|-----------------------------------------|
|--1111111-1-1-1111--1111111----6---6------|
|--1111111-1-1-1111--1111111----4---4------|
|--1111111-1-1-1111--1111111--0---0--------|x3
PM ....... . . ....  .......  .   .

|------------------------------|  
|------------------------------|  
|------------------------------|
|--1111111-1-1-1-1--111111-1---|
|--1111111-1-1-1-1--111111-1---|
|--1111111-1-1-1-1--111111-1---|
PM ....... . . . .  ......


CHORUS

"This vicious cycle ..."
"still      remains     constant cluster ..."
|--------------------------------------|
|--------------------------------------|
|--------------------------------------|
|--1-------4-------5--------22-2-2-----| 
|--1-------4-------5--------22~2-2-----|
|--1-------4-------5--------22~2-2-----|x4


VERSE 2

                             "..sick, nothing has changed"
|------------------------|    |------------------------|
|------------------------|    |------------------------|
|------------------------|    |------------------------|
|--1--4--5--2-222220-----|    |---------------2--------|
|--1--4--5--2~222220-----|    |---------------2--------|
|--1--4--5--2~222220-----|x4  |---4*/\/\/\/\--2--------|
PM            ......


PRECHORUS

|-----------------------------------------|  
|-----------------------------------------|
|-----------------------------------------|
|--1111111-1-1-1-1--1111111----6---6------|
|--1111111-1-1-1-1--1111111----4---4------|
|--1111111-1-1-1-1--1111111--0---0--------|x3
PM ....... . . . .  .......  .   .


|-----------------------------------|  
|-----------------------------------|  
|-----------------------------------|
|--1111111-1-1-1-1------------------|
|--1111111-1-1-1-1------------------|
|--1111111-1-1-1-1--333-444-555-111-|
PM ....... . . . .  ... ... ... ...


BRIDGE - again, dodgy strum pattern, hard to translate into an accurate 
         tab but just listen lol
  

|-----------------------------------------|  
|-----------------------------------------|
|-----------------------------------------|
|--1111-1111-1-1-1-1--1-1111-1-1-1-1------|
|--1111-1111-1-1-1-1--1-1111-1-1-1-1------|
|--1111-1111-1-1-1-1--1-1111-1-1-1-1------|x4
PM .... .... . . . .  . .... . . . .

for the little gap just pick the harmonics on the 5th fret, botton two strings

then (and this is how i do it)

"you have to, pick and chose your fights..."

|-----------------------------------------------------------------|
|-----------------------------------------------------------------|
|-----------------------------------------------------------------|
|-----------------------------------------------------------------|
|-5-----5*~-------------000-000-----5-----5*------------3h5p3p0---|
|---0-6------0-6p0-5p0--000-000-------0-6-----0-6p0-5p0-3h5p3p0---|x4?
PM  . .      .          ... ...       . .     .


".....ALIVEE!!!....."

|---------------------|
|---------------------|
|---------------------|
|------------------5--|
|--555-555-555-555-5--|
|--555-555-555-555-5--|
PM ... ... ... ... .


CHORUS

"I have told you..."
"things need to change 
|--------------------------------------|
|--------------------------------------|
|--------------------------------------|
|--1-------4-------5--------22-2-2-----| 
|--1-------4-------5--------22~2-2-----|
|--1-------4-------5--------22~2-2-----|x4

|---------------------------|
|---------------------------| tremolo pick but keep the same
|---------------------------| timing
|---------------------------| 
|---------------------------|
|-1111-4444-5555-22222222---|x4


repeat PRECHORUS once more then end with this over and over with Flanger effect if you can

ENDING

|------------------------------------/-----------------------------------| 
|------------------------------------/-----------------------------------|
|------------------------------------/-----------------------------------|
|-0000-0000-0-0-0-0--0-0000-0-0-0-0--/--0000-0000-0-0-0-0--0-0000-1-1-1--|
|-0000-0000-0-0-0-0--0-0000-0-0-0-0--/--0000-0000-0-0-0-0--0-0000-1-1-1--|
|-0000-0000-0-0-0-0--0-0000-0-0-0-0--/--0000-0000-0-0-0-0--0-0000-1-1-1--|
PM.... .... . . . .  . .... . . . .     .... .... . . . .  . .... . . .

|------------------------------------/-----------------------------------| 
|------------------------------------/-----------------------------------|
|------------------------------------/-----------------------------------|
|-0000-0000-0-0-0-0--0-0000-0-0-0-0--/--3-3-3--4-4-4--5-5-5--1-1-///-----|
|-0000-0000-0-0-0-0--0-0000-0-0-0-0--/--3-3-3--4-4-4--5-5-5--1-1-///-----|
|-0000-0000-0-0-0-0--0-0000-0-0-0-0--/--3-3-3--4-4-4--5-5-5--1-1-///-----|
PM.... .... . . . .  . .... . . . .     . . .  . . .  . . .  . .

repeat to fade!!





            
            
Suggest correction
Creating personal tab
Creating personal tab
You can edit any tab online and save it as your Personal.

You can edit, replace or remove any tab part or add personal notes – all changes will be seen only by you.

Personal tabs can be accessed anytime from any device, even offline.
Learn more »
comments
print report bad tab
1 comment total.
0 reply
Evanwines4299 10 May 09, 2013 03:15 AM

The ending effect is actually a phaser pedal not a flanger. Just set the rate of the phaser effect at around a 9-10 o'clock position on your pedal and then it should sound spot on. Great tab too!

guest
You may want to rate the tab now too:
select rating
Wanna post a correction for this tab? Suggest correction